» » »

Goldfinger, Forgiveness Tabs (ver.1)

Artists:  A B C D E F G H I J K L M N O P Q R S T U V W X Y Z # 

Forgiveness Tabs (ver.1)

Goldfinger Tabs
 Rating:
4.3/5 (6 votes)
Forgiveness lessons Tabs too difficult? Try these video lessons and learn fast
1
                I looked on this site and they didn't have this tab!!!  This is an awesome 
song by Goldfinger called "Forgiveness".  This is 100% correct, I'm sure.
I play it all the time and it sounds great.  Here you go:

Publisher: MOJO Records


It starts off with acoustic guitar playing open chords and it goes like this:

INTRO: G  D  Em  C


Or, on the electic guitar, you could play it like this:


--------------------------------------------------------------------------
--------------------------------------------------------------------------
----------------7777777-------------------5555555-------------------------
---5555555------7777777------2222222------5555555-------------------------X2
---5555555------5555555------2222222------3333333-------------------------
---3333333-------------------0000000--------------------------------------



Then it goes into the verse (still playing open chords)



G             D           Em           C 
So you decided to blame him again for all your choices
G             D           Em           C
Seemed like the softer way out
G             D                 Em              C 
You think it just might make life easier to swallow will it
G            D                 Em           C
You made a fine career out of guilt

Pre-Chorus:
This part sounds lower than before, but it's only the bass that goes lower.
When they sing "Maybe he just did the best he could" at the end of the pre-
chorus, there is to Em chord.

G          D           Em                  C
Maybe he just did the best he could with what he had
G              D              C     
Maybe he just did the best he could 

Chorus:
This is all eletric guitar

-------------------------------------------------------------------------
-------------------------------------------------------------------------
--------------7777------------------------------5555---------------------
---5555-------7777-------------2222-------------5555---------------------X4
---5555-------5555-------------2222-------------3333---------------------
---3333------------------------0000--------------------------------------
Forgiveness, Forgiveness, Try and let it go, why don't you? 
Forgiveness just might save yourself.
Forgiveness, Forgiveness, Try and let it go, why don't you?
Forgiveness (strike one quick "D" note then stop) just might save yourself.

And then palm mute this directly after verse:

-----------------------------
-----------------------------
-----------------------------
--22222222222222222222-------
--22222222222222222222-------
--00000000000000000000-------

2nd verse: same as first.  Use electric guitar, and do not use open chords.

2nd chorus: same as first.  Then directly after, this comes on. Play very
softly.  If nessacary, use only one not at a time.


------------------------------------------------------------------
------------------------------------------------------------------
------------7-7-------------------5-5-----------------------------
-5-5--------7-7------2-2----------5-5-----------------------------X4
-5-5--------5-5------2-2----------3-3-----------------------------
-3-3-----------------0-0------------------------------------------
Don't you know what comes around goes around
Don't you know what comes around goes around
Don't you know what comes around goes around
Don't you know what comes around goes around
            
Submit corrections

comments powered by Disqus
↑ Back to top | Goldfinger Tabs for Forgiveness. Lyrics for acoustic guitar and electric guitar. 1 Tablatures and chords are parodies/interpretations of the original songs. You may use it for private study, scholarship, research or language learning purposes only