» » »

Goldfinger, Forgiveness Tabs (ver.2)

Artists:  A B C D E F G H I J K L M N O P Q R S T U V W X Y Z # 

Forgiveness Tabs (ver.2)

Goldfinger Tabs
Rating:
0/5 (0 votes)
Forgiveness lessons Tabs too difficult? Try these video lessons and learn fast
                Goldfinger
Forgiveness
Stomping Ground


Intro
e|--3--2--0--3--2--0--|
B|--0--3--1--0--3--0--|
G|--0--2--0--0--2--0--|
D|--0--0--2--0--0--2--|
A|--2-----3--2-----2--|
E|--3--------3--------|

Pre-chorus
e|--0--2--0--|
B|--0--3--1--|
G|--0--2--0--|
D|--2--0--2--|
A|--2-----3--|
E|--0--------|

Chorus
e|--------------|
B|--------------|
G|-----7--9--5--|
D|--5--7--9--5--|
A|--5--5--7--3--|
E|--3-----------|

Verse
e|--------------| |-----------------|
B|--------------| |-----------------|
G|--------7--5--| |-----5-----7--5--|
D|--2--5--7--5--| |--2--5--5--7--5--|
A|--2--5--5--3--| |--2--3--5--5--3--|
E|--0--3--------| |--0-----3--------|

Bridge
e|--------------------------| |-----|
B|--------------------------| |-----|
G|-----------7--5--4--2--7--| |-----|
D|--5--4--2--7--5--4--2--7--| |--2--|
A|--5--4--2--5--3--2--0--5--| |--2--|
E|--3--2--0-----------------| |--0--|
            

comments powered by Disqus
↑ Back to top | Goldfinger Tabs for Forgiveness. Lyrics for acoustic guitar and electric guitar. Tablatures and chords are parodies/interpretations of the original songs. You may use it for private study, scholarship, research or language learning purposes only