>
 >
Carlita 1

Carlita 1 Guitar Tabs

Goldfinger - Carlita 1 chords, tabs, tablatures, lyrics

Guitar lessons | Add/correct | Request | Top 50 tabs Artists:  A B C D E F G H I J K L M N O P Q R S T U V W X Y Z 0-9

Carlita 1 Guitar Tabs – Goldfinger

CD, Sheet music, Poster

Do you like Carlita 1? Share with your friends now
Bass TabsTabsTabs v2
Intro:
e|--9--9--|
B|--9--9--|
G|--------|
D|--------|
A|--------|
E|--------|

Pre-Verse: "Yeeeeeeeeeah Yeeeeeeeeeah" 
e|--7--7---5-5---7--7---5--5---7--7---5--5---7--7---5--5--|
B|--7--7---5-5---7--7---5--5---7--7---5--5---7--7---5--5--|
G|--8--8---6-6---8--8---6--6---8--8---6--6---8--8---6--6--|
D|--------------------------------------------------------|
A|--------------------------------------------------------|
E|--------------------------------------------------------|

Chorus:	
e|--7-7--6-6--5-5--4-4-x3|--7--6--5--|
B|--7-7--7-7--5-5--5-5---|--7--7--5--|
G|--8-8--6-6--6-6--4-4---|--8--6--6--|
D|-----------------------|-----------|
A|-----------------------|-----------|
E|-----------------------|-----------|

e|--5555-4------|
B|---------7-5--|

Verse:
e|--6--6---7--7---6--6---7--7--|x2
B|--7--7---7--7---7--7---7--7--|
G|--6--6---8--8---6--6---8--8--|
D|-----------------------------|
A|-----------------------------|
E|-----------------------------|

Pre-Chorus:
e|--7-7---7---9-9---9---5--4--7-7---7--|
B|--7-7---7---9-9---9---5--5--7-7---7--|
G|--8-8---8---9-9---9---6--4--8-8---8--|
D|-------------------------------------|
A|-------------------------------------|
E|-------------------------------------|

Chorus
Pre-Verse
Verse
Pre-Chorus
Chorus
Pre-Verse

In the Trumpet solo play the chorus

Pre-Chorus
e|--------------------------x2|-------|
B|----------------------------|-------|
G|-//---4-----6-----2-----4---|--7-7--|
D|-//---4-----6-----2--2--4---|--7-7--|
A|-//---2-----4-----0--2--2---|--9-9--|
E|---------------------0------|-------|

e|--7-7--6-6--5555-4------|x4
B|--7-7--7-7---------7-5--|
G|--8-8--6-6--------------|
D|------------------------|
A|------------------------|
E|------------------------|

Chorus:
e|-------------------------x3|-----------------------------------------|
B|---------------------------|-----------------------------------------|
G|--6--6--------4--4---------|--6-------4---6-------4---6-----4444--6--|
D|--6--6--6--6--4--4--4--4---|--6--6-6--4---6--6-6--4---6--6--4444--6--|
A|--4--4--6--6--2--2--4--4---|--4--6-6--2---4--6-6--2---4--6--2222--4--|
E|--------4--4--------2--2---|-----4-4---------4-4---------4-----------|
                                                              PM-|
Chorus solo:
e|--------------------------------------------------------------------------------------|
B|-----6--9---7-6----------6--9---7-6---9------6--9---7-6-------------------------------|
G|---6------------8-6----6------------8------6------------8-6--6-6-8-8-6---10-10-8-8-8--|
D|-6-------------------6-------------------6--------------------------------------------|
A|--------------------------------------------------------------------------------------|
E|--------------------------------------------------------------------------------------|

e|--------------|
B|--------------|
G|--------------|
D|--6-6--9------|
A|---------9-8--|
E|--------------|

Outro:
e|---9--9--4--4--7--7--6--6--|
B|---9--9--4--4--7--7--7--7--|
G|--10-10--5--5--8--8--6--6--|
D|---------------------------|
A|---------------------------|
E|---------------------------|

END

Lyrics:

Well after today I'll never see you
and you'll be left with your life
Collecting all your souvenirs
I'll never get it right

Empty man hollow man
I call myself a hermit
My self esteem contingent on
the way you look at me

I'm hanging on your words
yeah I'm reading 
all your thoughts
If only I could be you now
cause you got the control

Empty man lonely man
I call myself depressed
I'm finding ways to avoid you
at the expense of sanity
I'm hanging on your words
and I'd like to share a thought
I know I can't be you now
but I'd like to stay a while





Comments


Popular Goldfinger tabs & chords
99 Red Balloons 3 Bass Tabs
Fuck You And Your Cat 1 Bass Tabs
Mind's Eye 1 Bass Tabs
Free Kevin Kjonaas 2 Chords
Upper Hand Chords
Bro Tabs
Free Me Tabs
My Girlfriends Shower Sucks 1 Tabs
The Only One Tabs
Free Kevin Kjonaas Ukulele


Song lyrics



↑ Back to top | Tablatures and chords are parodies/interpretations of the original songs. You may use it for private study, scholarship, research or language learning purposes only
© 2014 AZChords.com Contact us | Privacy policy | DMCA | Add/correct tabs | Request tabs | Top 50 tabs