>
 >
Carlita

Carlita Guitar Tabs

Goldfinger - Carlita chords, tabs, tablatures, lyrics

Guitar lessons | Add/correct | Request | Top 50 tabs Artists:  A B C D E F G H I J K L M N O P Q R S T U V W X Y Z 0-9

Carlita Guitar Tabs – Goldfinger

CD, Sheet music, Poster

Do you like Carlita? Share with your friends now
Bass TabsTabsTabs v2

Standard Tuning


Guitar first 2 Strokes, then along with Trumpet(T)


Intro (Ska upstrokes)

---9--9----
---9--9----
-----------
-----------
-----------
-----------


(T)
--7-7----5-5-------7-7----5-5-------7-7----5-5-------7-7----5-5------
--7-7----5-5-------7-7----5-5-------7-7----5-5-------7-7----5-5------

				  Yeeeeeeeeeah     Yeeeeeeeeeah  Well 


CHORUS***:)


--7--7----6--6----5--5----4--4-----------
--7--7----6--6----5--5----4--4-----------
-----------------------------------------
-----------------------------------------
-----------------------------------------
-----------------------------------------
 after     today I'll never see you     and 


-7--7-----6--6-----5-5-5-5---4--2---4----
-7--7-----6--6-----5-5-5-5---4--2---4----
-----------------------------------------
-----------------------------------------
-----------------------------------------
-----------------------------------------
you'll be left with your life          Col-


--7--7----6--6----5--5----4--4-----------
--7--7----6--6----5--5----4--4-----------
-----------------------------------------
-----------------------------------------
-----------------------------------------
-----------------------------------------
 lecting all your souvenirs 		I'll

-7----6------5------
-7----6------5------
--------------------
--------------------
--------------------
--------------------
never get it right




VERSE 1 ***,)


----6---6----7---7------6---6----7---7--
----7---7----7---7------7---7----7---7--
----------------------------------------
----------------------------------------
----------------------------------------
----------------------------------------
Empty man hollow man  I call myself a hermit


--------6-----6-------7----7--------6-------6------7---7--
--------7-----7-------7----7--------7-------7------7---7--
----------------------------------------------------------
----------------------------------------------------------
----------------------------------------------------------
----------------------------------------------------------
My self esteem contingent on the way you look at me




--------7-7-------7------9-9------9----
--------7-7-------7------9-9------9----
---------------------------------------
---------------------------------------
---------------------------------------
---------------------------------------
I'm hanging on your words


---------5-------4--------7----7-------
---------5-------4--------7----7-------
---------------------------------------
---------------------------------------
---------------------------------------
---------------------------------------
yeah I'm reading all your thoughts


--------7-7-------7------9-9--------9--
--------7-7-------7------9-9--------9--
---------------------------------------
---------------------------------------
---------------------------------------
---------------------------------------
   If only I     could   be you now


---------5-------4--------7----7-------
---------5-------4--------7----7-------
---------------------------------------
---------------------------------------
---------------------------------------
---------------------------------------
cause you got the control


CHORUS***.)



VERSE 2***=:)

(like verse1)

Empty man lonely man
I call myself depressed
I'm finding ways to avoid you
at the expense of sanity
I'm hanging on your words
and I'd like to share a thought
I know I can't be you now
but I'd like to stay a while



CHORUS***.)
(just turn it up a little)


Trumpet Solo


BRIDGE (+distorted guitar)

----------------------------------
----------------------------------
----4---------------6-------------
----4---------------6-------------
----2---------------4-------------
----------------------------------
I'm hanging on your words


-----------------------------------
-----------------------------------
-----------------------------------
---------7-------6---------4-------
---------7-------6---------4-------
---------5-------4---------2-------

yeah I'm reading all your thoughts


----------------------------------
----------------------------------
----4---------------6-------------
----4---------------6-------------
----2---------------4-------------
----------------------------------
If only I could be you now



--------------------------------------
--------------------------------------
-----------------------------------7-7
---------7-------6---------4-------7-7
---------7-------6---------4-------9-9
---------5-------4---------2----------

cause    you got the    control




CHORUS***+(




CHORUS 2nd time with 
GUITAR SOLO (the first part of it)

--------6-----------------------------
-----6-----9----7--6------------------
--6-------------------8--6------------
--------------------------------------
--------------------------------------
--------------------------------------


and the following chords:

--------------------------------------
--------------------------------------
--6--6------------4--4----------------
--6--6-----6--6---4--4---4------------
--4--4-----6--6---2--2---4------------
-----------4--4----------2------------


....repeat these chords until:


THE COOOL SKA PART WITH ALL THE MARACAS AND STUFF ....


---9--9-----4--4-----7--7-----6--6----
---9--9-----4--4-----7--7-----6--6----
--------------------------------------
--------------------------------------
--------------------------------------
--------------------------------------





Comments


Popular Goldfinger tabs & chords
Loneliest Place Bass Tabs
Tony Hawk 4 Song Bass Tabs
Happy Chords
99 Red Balloons 2 Tabs
99 Red Baloons Tabs
Chris Cayton Tabs
Forgiveness 1 Tabs
Goldfinger-Here In Your Bedroom Tabs
Wake Up Tabs
Wayne Gretzky Tabs


Song lyrics



↑ Back to top | Tablatures and chords are parodies/interpretations of the original songs. You may use it for private study, scholarship, research or language learning purposes only
© 2014 AZChords.com Contact us | Privacy policy | DMCA | Add/correct tabs | Request tabs | Top 50 tabs