» » »

Everything Is Beautiful When You Don't Look Down Tabs (ver.2)

Artists:  A B C D E F G H I J K L M N O P Q R S T U V W X Y Z # 

Everything Is Beautiful When You Don't Look Down Tabs (ver.2)

Glasseater
Rating:
4/5 (1 vote)

Hard to play? Try these video lessons and learn fast.
                 Tuning: Standard
 (EADGBE)




      Intro x2
 E|------------------------------------------------------|
 B|------------------------------------------------------|
 G|------------------------------------------------------|
 D|-----2-3--2-----2-------2-3--2-----2-------2-3--2-----|
 A|-0-0--------0-0-----0-0--------0-0--------------------|
 E|---------------------------------------3-3--------3-3-|


 E|----------------------|
 B|----------------------|
 G|----------------------|
 D|--2-----3-2-----3-2---|
 A|----------------------|
 E|----0-0-----3-3-------|



   Chorus x2
  (strumming)
   
 E|-------------------------------------------------------|
 B|-------------------------------------------------------|
 G|-101010101010101010/1414141414141414-1212121212121212--|
 D|--x-x-x-x-x-x-x-x-x/-x-x-x-x-x-x-x-x--x-x-x-x-x-x-x-x--|
 A|--8-8-8-8-8-8-8-8-8/1212121212121212-1010101010101010--|
 E|-------------------------------------------------------|


 E|-------------------------------------------------------|
 B|-------------------------------------------------------|
 G|-1010101010101010---9-9-9-9-9-9-9-9-9/1414141414141414-|
 D|--x-x-x-x-x-x-x-x---x-x-x-x-x-x-x-x-x/-x-x-x-x-x-x-x-x-|
 A|--8-8-8-8-8-8-8-8---7-7-7-7-7-7-7-7-7/1212121212121212-|
 E|-------------------------------------------------------|


 
 E|------------------------------------|
 B|------------------------------------|
 G|-1515151515151515---9-9-9-9-9-9-9-9-|
 D|--x-x-x-x-x-x-x-x---x-x-x-x-x-x-x-x-|
 A|-1313131313131313---7-7-7-7-7-7-7-7-|
 E|------------------------------------|



  Then Intro x2

  Then chorus x2

  at the end play chorus alittle slower 

 Bridge is coming soon!


   Please Rate my Tab
            
Hard to play? Try these video lessons and learn fast. | Correct




comments powered by Disqus
↑ Back to top | Tablatures and chords are parodies/interpretations of the original songs. You may use it for private study, scholarship, research or language learning purposes only