» » »

Everything Is Beautiful When You Don't Look Down Tabs (ver.1)

Artists:  A B C D E F G H I J K L M N O P Q R S T U V W X Y Z # 

Everything Is Beautiful When You Don't Look Down Tabs (ver.1)

Glasseater
Rating:
0/5 (0 votes)

Hard to play? Try these video lessons and learn fast.
                Tuning: Drop D
(DADGBE)

The other tab for this song didn't sound quite right.  So i decided to set things the 
they should be.
:]]
This is my first tab so be nice!


   Intro x2
E|----------------------------------------------------------------|
B|----------------------------------------------------------------|
G|----------------------------------------------------------------|
D|----2-3--2---2-----2-3--2---2-----2-3--2---2-----3-2---0-3-2----|
A|-----------0-----0--------0--------------0-----1-----3----------|
D|--0-----------------------------5-------------------------------|

(on the last part of the intro where it has the extra "0" note, im not sure about it but 
sounds like that's in there)

   Chorus x2
E|----------------------------------------------------------|
B|----------------------------------------------------------|
G|---10-------14-------12-------10--------9-------14--------|
D|----x--x8----x--x8----x--x8----x--x8----x--x8----x--x8----|
A|----8-------12-------10--------8--------7-------12--------|
D|----------------------------------------------------------|

E|----------------------|
B|----------------------|
G|---15--------9--------|
D|----x--x8----x--x8----|
A|---13--------7--------|
D|----------------------|


(end with this)
E|--------|
B|--------|
G|---10---|
D|----x---|
A|----8---|
D|--------|

   Verse x2
E|----------------------------------------------------------------|
B|----------------------------------------------------------------|
G|----------------------------------------------------------------|
D|----2-3--2---2-----2-3--2---2-----2-3--2---2-----3-2---0-3-2----|
A|-----------0-----0--------0--------------0-----1-----3----------|
D|--0-----------------------------5-------------------------------|


   (There is a 2nd guitar playing this)
E|------------------------------------------------------------------|
B|------------------------------------------------------------------|
G|------2---------3--3----------------------3--3--------5--5--------|
D|---0--2--x16----3--3--x16----5--5---------3--3--x8----5--5--x8----|
A|---0--0---------1--1---------5--5--x16----1--1--------3--3--------|
D|---0-------------------------5--5---------------------------------|
        *            *            *            *           *

   Repeat Chorus x2
E|----------------------------------------------------------|
B|----------------------------------------------------------|
G|---10-------14-------12-------10--------9-------14--------|
D|----x--x8----x--x8----x--x8----x--x8----x--x8----x--x8----|
A|----8-------12-------10--------8--------7-------12--------|
D|----------------------------------------------------------|

E|----------------------|
B|----------------------|
G|---15--------9--------|
D|----x--x8----x--x8----|
A|---13--------7--------|
D|----------------------|


   Repeat Verse x2
E|----------------------------------------------------------------|
B|----------------------------------------------------------------|
G|----------------------------------------------------------------|
D|----2-3--2---2-----2-3--2---2-----2-3--2---2-----3-2---0-3-2----|
A|-----------0-----0--------0--------------0-----1-----3----------|
D|--0-----------------------------5-------------------------------|

   2nd guitar
E|------------------------------------------------------------------|
B|------------------------------------------------------------------|
G|------2---------3--3----------------------3--3--------5--5--------|
D|---0--2--x16----3--3--x16----5--5---------3--3--x8----5--5--x8----|
A|---0--0---------1--1---------5--5--x16----1--1--------3--3--------|
D|---0-------------------------5--5---------------------------------|
        *            *            *            *           *

   Repeat Chorus x2
E|----------------------------------------------------------|
B|----------------------------------------------------------|
G|---10-------14-------12-------10--------9-------14--------|
D|----x--x8----x--x8----x--x8----x--x8----x--x8----x--x8----|
A|----8-------12-------10--------8--------7-------12--------|
D|----------------------------------------------------------|

E|----------------------|
B|----------------------|
G|---15--------9--------|
D|----x--x8----x--x8----|
A|---13--------7--------|
D|----------------------|

   Bridge x2
E|---------------------------------------|
B|---------------------------------------|
G|---------------------------------------|
D|---7--------0--------1--------3--------|
A|---7--x8----0--x8----1--x8----3--x8----|
D|---7--------0--------1--------3--------|

(the strumming pattern for the bridge is kindof strange, but you should be able to 
it out)


   2nd guitar
E|---------------------------------------------|
B|---------------------------------------------|
G|---5---------9---------10---------12---------|
D|---x--x16----x--x16-----x--x16-----x--x16----|
A|---3---------7----------8---------10---------|
D|---------------------------------------------|

(i really didn't know how to go about the 2nd guitar part for the bridge... my guess is 
good as any)

   Do the Chorus again 4x
E|----------------------------------------------------------|
B|----------------------------------------------------------|
G|---10-------14-------12-------10--------9-------14--------|
D|----x--x8----x--x8----x--x8----x--x8----x--x8----x--x8----|
A|----8-------12-------10--------8--------7-------12--------|
D|----------------------------------------------------------|

E|----------------------|
B|----------------------|
G|---15--------9--------|
D|----x--x8----x--x8----|
A|---13--------7--------|
D|----------------------|


   Let song fade out with
E|-------|
B|-------|
G|---7---|
D|---7---|
A|---5---|
D|-------|

* = palm mute

So that's the song.
If you have any questions,
feel free to ask.
            
Hard to play? Try these video lessons and learn fast. | Correct




comments powered by Disqus
↑ Back to top | Tablatures and chords are parodies/interpretations of the original songs. You may use it for private study, scholarship, research or language learning purposes only