>
 >
Vomit

Vomit Chords

Girls - Vomit chords, tabs, tablatures, lyrics

Guitar lessons | Add/correct | Request | Top 50 tabs Artists:  A B C D E F G H I J K L M N O P Q R S T U V W X Y Z 0-9

Vomit Chords – Girls

CD, Sheet music, Poster

Do you like Vomit? Share with your friends now
ChordsChords v2
Girls - Vomit
Father, Son, Holy Ghost (2011)



First tab for me but this should give you the idea of the song ! ENJOY :)

Chords used :

Am     (X02210)
Am/G   (302210)
Em     (022000)
E      (022100)
G6     (320030)
G6/F#  (220030)
D/F#   (2X0232)
Bm     (799777)
C      (81010988)


Intro

  Am 				   Em

e|---------0--------------0--------0--------|
B|---1-0-1--0-1-----1-0-1---0-1----0--------|
G|--------------2---------------2--0--------|
D|---------------------------------2--------|
A|-0--------------0----------------2--------|
E|---------------------------------0--------|


Am
Nights I spend alone
				       Em
I spend 'em runnin' 'round lookin' for you, baby

Am
Nights I spend alone
				       Em
I spend 'em runnin' 'round lookin' for you, baby

	    	G
Lookin' for love
	    	Am	
Lookin' for love
            	G
Lookin' for love
	    	
Lookin' for love

Am Em

Am
Nights I spend alone
				       Em
I spend 'em runnin' 'round lookin' for you, baby
Am
Nights I spend alone
					   Em
I spend 'em runnin' 'round and 'round and 'round

And 'round and 'round and 'round and 'round and 'round

And down and down and down and down and down


Solo 1
Am E


    Am							E
e|---------------------------------------------------------------------------------------------|
B|---------------------------------------------------------------------------------------------|
G|------5--7-7b8r7b8r7---5---------5--7-7b8r7b8r7-5--------------------------------------------|
D|--7-7----------------7---7----7-------------------7-7-6-------6h7-7-7-7-6--------------------|
A|--------------------------------------------------------7-6-7-------------7-6-5-6-5----------|
E|------------------------------------------------------------------------------------7-6-5-4--|


    Am							E
e|--------------------------------------------------------------------------|
B|--------------------------------------------------------------------------|
G|------5--7-7b8r7b8r7---5---------5--7-7b8r7b8r7-5-----...Random bends..---|
D|--7-7----------------7---7----7-------------------7-----------------------|
A|--------------------------------------------------------------------------|
E|--------------------------------------------------------------------------|


Am Em

Am
Nights I spend alone
				       Em
I spend 'em runnin' 'round lookin' for you, baby
Am
Nights I spend alone
				       Em
I spend 'em runnin' 'round lookin' for you, baby

		G
Lookin' for love 
		Am
Lookin' for love
		G
Lookin' for love
		Am
Lookin' for love


	      G
Cause there's something that I get from myself
	    Bm
And there's something that you give to me
	C
Well, I got one without the other
     G
Well it's not enough to be - I need your love

Am  Am/G  D/F#  D/F#  G6  G6/F#

Em                Am Am/G  D/F# D/F# 
Come into my heart		  
        
                  G6  G6/F#  Em	  
Come into my heart

                  Am Am/G  D/F# D/F# 
Come into my heart		  
        
       G6  G6/F#  Em	  
My love

		  Am Am/G  D/F# D/F#
Come into my heart
                  G6  G6/F#  Em
Come into my heart
		  Am Am/G  D/F# D/F# G6  G6/F#  Em
Come into my heart 
		      Am Am/G  D/F# D/F#
Oh, come into my heart
                  G6  G6/F#  Em	
Come into my heart
		  Am Am/G  D/F#
Come into my heart
D/F#    G6
My love


Solo 2

  Am	            Am/G	      D/F#	  G6		G6/F#        Em

e|----------------------------------------------------------------------------------|
B|----------------------------------------------------------------------------------|
G|-13pb12r-10----10-12--10h12p10----------------------------------------------------|
D|------------12-----------------12-11-----------------------------5-7-5------------|
A|-------------------------------------------------------5---5-5-7-------7-5-7------|
E|-------------------------------------------------3-5-7---7------------------------|

  Am	            Am/G	D/F#	  G6		       G6/F#                Em

e|----------------------------------------15-14-12----12-------------------------------------|
B|-------------------------------------------------15----15-12----12-------------------------|
G|-5pb4r-2----2-4-------2h4p2----------------------------------14----14-12-11-12-11----------|
D|----------5----------------5-4----------------------------------------------------14-14----|
A|-------------------------------------------------------------------------------------------|
E|-------------------------------------------------------------------------------------------|


Thanks ! 





Comments


Popular Girls tabs & chords
Lust For Life Bass Tabs
Alex Chords
Big Bad Mean Motherfucker Chords
Broken Dreams Club Chords
Hellhole Ratrace 1 Chords
Magic Chords
Carolina Tabs
Alex Ukulele
Just A Song Ukulele
My Ma Ukulele


Song lyrics



↑ Back to top | Tablatures and chords are parodies/interpretations of the original songs. You may use it for private study, scholarship, research or language learning purposes only
© 2014 AZChords.com Contact us | Privacy policy | DMCA | Add/correct tabs | Request tabs | Top 50 tabs