>
 >
Lust For Life

Lust For Life Guitar Tabs

Girls - Lust For Life chords, tabs, tablatures, lyrics

Guitar lessons | Add/correct | Request | Top 50 tabs Artists:  A B C D E F G H I J K L M N O P Q R S T U V W X Y Z 0-9

Lust For Life Guitar Tabs – Girls

CD, Sheet music, Poster

Do you like Lust For Life? Share with your friends now
Bass TabsTabsTabs v2
                       -GIRLS-

                    -LUST FOR LIFE-

  Lust For Life (acoustic version)at the SPIN Office in NYC
   

   It is not perfect but sounds quite good.

   CAPO 5
   Guitar 1(plays the same the whole song)

   Intro:  D

                      G         Em
   Oh I wish I had a boyfriend
                    D              Dmaj7
   I wish I had a loving man in my life
                    G         Em
   I wish I had a father
              D                      Dmaj7
   And maybe then I woulda turned out right
                      G         Em
   But now I'm just crazy
                D         Dmaj7
   and totally mad
                  G          Em
   Yeah Im just crazy
                     D        Dmaj7
   im fucked in the head

                    G                        A
   And maybe if I really try with all of my heart
                 D      A         Bm       A        G      Gm
   Then I could make a brand new start in love with you


  CAPO 5
  LEAD GUITAR: Until here the 2nd Guitar doesnt play anything.Then

                        G       Em
        I wish I had a sun tan
                       D                   Dmaj7
        I wish I had a pizza and bottle of wine
                        G        Em
        I wish I had beach house
                        D              Dmaj7
        And we could make a big fire every night
                          G     Em          D      Dmaj7
        Instead I'm just crazy and totally mad
                       G   Em                       D     Dmaj7
        Yeah Im just crazy      and fucked in the head

      At 1:15 plays:(you will hear it better at 1:52, it is the same thing)



                                D    A   Bm   A

 E]-----------------------------2----0--------------------0-0---0-----------|
 B]-------------------------------3----2---2/3-----2------3-3----3--3-3-----|
 G]---------------------------------2----2-----4-----2----0-0--4---4---4/7*-|
 D]------------2-2/4--2-0---0--------------------4-----2--------------------|
 A]-1/2-5-2---------------2-------------------------------------------------|
 E]---------5---------------------------------------------------------------|


 E]--6----5-----6----5---------]
 B]----8----8--8--8----8-------]
 G]7*----7----------7-----7----]
 D]-------------------------(8)]  
 A]----------------------------]
 E]----------------------------]


    G  Em  D  Dmaj7  E--------2-------------5--5--5----------------|
                     B--2-3-55----------------7--7----7/5-5--3---3-|
                     G-----------------------------------------4---|
                     D---------------------------------------------|


                     E--------2----------------------------------|
                     B--2-3-55----------3p2----------------------|
                     G----------------------4p2--4-2---2-4-------|
                     D-------------------------------4-----------|

                     E--------2-2--------5--5---5---5---5---5-------|
                     B--2-3-55-------4/7--7---7---7---7---7---7-----|
                     G----------------------------------------------|

     1:52


                              D    A   Bm   A

 E]-----------------------------2----0--------------------0-0---0-----------|
 B]-------------------------------3----2---2/3-----2------3-3----3--3-3-----|
 G]---------------------------------2----2-----4-----2----0-0--4---4---4/7*-|
 D]------------2-2/4--2-0---0--------------------4-----2--------------------|
 A]-1/2-5-2---------------2-------------------------------------------------|
 E]---------5---------------------------------------------------------------|


 

 E]--6----5-----6----5---------]
 B]----8----8--8--8----8-------]
 G]7*----7----------7-----7----]
 D]-------------------------(8)]  
 A]----------------------------]
 E]----------------------------]


 
 


  Final Arpeggio:


 E]-2-2------0--------0-------0------------0-------2----------------|
 B]-3--3-------3--------3-------3---------3--3-----3----------------|
 G]-2---2---2---2----0---0---0----0-----0-----0----2----------------|
 D]-0----0-0------0-0-----0-0------0--0---------0--0----------------|
 A]-0-----3--------2-------1---------1-------------0----------------|
 E]-0----------------------------------------------0----------------|


  END





Comments


Popular Girls tabs & chords
Broken Dreams Club 1 Chords
Honey Bunny 1 Chords
Just A Song Chords
Laura Chords
The Oh So Protective One Chords
Big Bad Mean Motherfucker Ukulele
Broken Dreams Club Ukulele
Jamie Marie Ukulele
My Ma Ukulele
Vomit Intro Ukulele


Song lyrics



↑ Back to top | Tablatures and chords are parodies/interpretations of the original songs. You may use it for private study, scholarship, research or language learning purposes only
© 2014 AZChords.com Contact us | Privacy policy | DMCA | Add/correct tabs | Request tabs | Top 50 tabs