>
 >
Picture Frames 2

Picture Frames 2 Guitar Tabs

Georgia Fair - Picture Frames 2 chords, tabs, tablatures, lyrics

Guitar lessons | Add/correct | Request | Top 50 tabs Artists:  A B C D E F G H I J K L M N O P Q R S T U V W X Y Z 0-9

Picture Frames 2 Guitar Tabs – Georgia Fair

CD, Sheet music, Poster

Do you like Picture Frames 2? Share with your friends now
ChordsTabsTabs v2Tabs v3Ukulele
This tab is for the amazing Jess Groves; I can't wait to play this song with you :)

Capo on second

Intro:
Guitar 1
e----------------------------------------------|
B----------------------------------------------|
G-------------------1-------------------1------|
D-----------2---4---------------2---4----------|
A---2---4---------------2---4------------------|
E-0---0---0---0---0---0---0---0---0---0--------|

e---------------------------------------0------|
B-------------------2---------------4----------|
G-----------1---4---------------1--------------|
D---2---4---------------2---4------------------|
A-0---0---0---0---0---0---0---0---0---0--------|
E----------------------------------------------|

Guitar 2
e----------------------------------------------|
B----------------------------------------------|
G----------------------------------------------|
D----------------------------------------------|
A---6---4---2---4---2-------6---4---2---4---2--|
E-0---0---0---0---0---0---0---0---0---0---0----|

e----------------------------------------------|
B----------------------------------------------|
G-----------------------------------6---4------|
D---6---4---2---4---2-------6---4-----------6--|
A-0---0---0---0---0---0---0---0---0---0---0----|
E----------------------------------------------|

These parts continue through the verses.

Once the drums kick in, another guitar strums once and lets ring these chords throughout 
the song, and they're strummed on an acoustic:

e-0~------0~---------|
B-0~------2~---------|
G-1~------2~---------|
D-2~------2~---------|
A-2~------0~---------|
E-0~-----------------|

Chorus: Listen for strumming pattern
e--0-------------0----|
B--5------4------2----|
G--6------4------2----|
D--6------4------2----|
A--4------2------0----|
E---------------------|

Underneath those chords I think I can hear these arpeggios:
e-------------------------------------------------------------|
B-5-----5---5----4-----4---4----2-----2---2----2-----2---2----|
G---6---------6----4---------4----2---------2----2---------2--|
D-----6---6----------4---4----------2---2----------2---2------|
A-------------------------------------------------------------|
E-------------------------------------------------------------|

Solo - relative to capo, very hard to hear the end:
e-------------------------------------------------------------|
B-------------------------------------------------------------|
G---------------------------------------4-------4------4-4----|
D-------4-x-4-4h6-------4-x-4h6-----4/6-----4/6----4/6-----6--|
A--6/7--------------6/7---------------------------------------|
E-------------------------------------------------------------|

e------------------------------------------------------|
B------5~--7-7b(9)--(9)r7p5-5-5---4h5------------------|
G--4h6--------------------------------6-x-4-4h6~~/13---|
D------------------------------------------------------|
A------------------------------------------------------|
E------------------------------------------------------|

e---------------------------------------------------|
B--7h9-x-9-9---7h9-x-9-9---7h9-x-9-9---7h9-x-9-9----|
G------------9-----------9-----------9-----------9--|
D---------------------------------------------------|
A---------------------------------------------------|
E---------------------------------------------------|

e--------------------------------------------------------------------|
B-------------9---------------9---------------9-----------9-----9----|
G--11p9-x-9-9---9--11p9-x-9-9---9--11p9-x-9-9---9--11p9-9---9-9---9--|
D--------------------------------------------------------------------|
A--------------------------------------------------------------------|
E--------------------------------------------------------------------|

e---------------------------------------------------|
B--7h9-x-9-9---7h9-x-9-9---7h9-x-9-9---7h9-x-9-9----|
G------------9-----------9-----------9-----------9--|
D---------------------------------------------------|
A---------------------------------------------------|
E---------------------------------------------------|

e--------------------------------------------------------------------|
B-------------9---------------9---------------9-----------9-----9----|
G--11p9-x-9-9---9--11p9-x-9-9---9--11p9-x-9-9---9--11p9-9---9-9---9--|
D--------------------------------------------------------------------|
A--------------------------------------------------------------------|
E--------------------------------------------------------------------|

Before last chorus:
Guitar 1
e----------------------------------------------|
B----------------------------------------------|
G-------------------1-------------------1------|
D-----------2---4---------------2---4----------|
A---2---4---------------2---4------------------|
E-0---0---0---0---0---0---0---0---0---0--------|

e-------------------------------0~-------------|
B-------------------2-----------5~-------------|
G-----------1---4------------------------------|
D---2---4---------------2---4------------------|
A-0---0---0---0---0---0---0---0----------------|
E----------------------------------------------|

Guitar 2
e----------------------------------------------|
B----------------------------------------------|
G----------------------------------------------|
D----------------------------------------------|
A---6---4---2---4---2-------6---4---2---4---2--|
E-0---0---0---0---0---0---0---0---0---0---0----|

e----------------------------------------------|
B----------------------------------------------|
G-----------------------------------6~---------|
D---6---4---2---4---2-------6---4--------------|
A-0---0---0---0---0---0---0---0---0------------|
E----------------------------------------------|

One more chorus and end on
e-0~---
B-0~---
G-1~---
D-2~---
A-2~---
E-0~---





Comments


Popular Georgia Fair tabs & chords
Baby Blues Chords
Picture Frames Chords
Real Man Hiding Chords
Juanita Tabs
Picture Frames Tabs
Picture Frames 1 Tabs
Baby Blues Ukulele
Juanita Ukulele
Picture Frames Ukulele
Real Man Hiding Ukulele


Song lyrics



↑ Back to top | Tablatures and chords are parodies/interpretations of the original songs. You may use it for private study, scholarship, research or language learning purposes only
© 2014 AZChords.com Contact us | Privacy policy | DMCA | Add/correct tabs | Request tabs | Top 50 tabs