» » »

Picture Frames Tabs (ver.2)

Artists:  A B C D E F G H I J K L M N O P Q R S T U V W X Y Z # 

Picture Frames Tabs (ver.2)

Georgia Fair
Rating:
5/5 (1 vote)

Tabs too difficult? Try these video lessons and learn fast.
                Picture Frames 
By Georgia Fair

Off the single Picture Frames

Riff for verse and intro

Guitar one
e|------------------------------------------------------------------|
B|------------------------------------------------------------------|
G|------------------1-----------------------------------------------|
D|--1-------2---4-------------x2------------------------------------|
A|------4-----------------------------------------------------------|
E|------------------------------------------------------------------|
 | Guitar 2						            |
e|------------------------------------------------------------------|
B|------------------------------------------------------------------|
G|------------------------------------------------------------------|
D|--1---------------------------x2----------------------------------|
A|------4---2---4---2-----------------------------------------------|
E|------------------------------------------------------------------|

Guitar one
e|------------------------------------------------------------------|
B|------------------2------------2---4---5--------------------------|
G|--1-------1---4--------1------------------------------------------|
D|------4--------------------4--------------------------------------|
A|------------------------------------------------------------------|
E|------------------------------------------------------------------|
| Guitar 2                                                          |
e|------------------------------------------------------------------|
B|------------------------------------------------------------------|
G|--1--------------------1-------6---4------------------------------|
D|------4---2---4---2--------4-----------6--------------------------|
A|------------------------------------------------------------------|
E|------------------------------------------------------------------|

Chorus
Guitar one
e|------------------------------------------------------------------|
B|--5-----4-----2---------------------------------------------------|
G|--6-----4-----2---------x2----------------------------------------|
D|--6-----4-----2---------------------------------------------------|
A|--4-----2-----0---------------------------------------------------|
E|------------------------------------------------------------------|
| Guitar 2							    |
e|------------------------------------------------------------------|
B|--5-----4-----2---------------------------------------------------|
G|--6-----4-----2---------------------------------------------------|
D|--6-----4-----2--------x2-----------------------------------------|
A|--4-----2-----0---------------------------------------------------|
E|------------------------------------------------------------------|

Verse again
Then chorus
Then
Solo (guitar one)
e|------------------------------------------------------------------|
B|------------------------------------------------------------------|
G|-----------------------------------------4~------4~-------4-4-----|
D|--------4--4---4/6~-------4---4/6~---4h6-----4h6------4h6-----6~--|
A|---6h7----------------6h7-----------------------------------------|
E|------------------------------------------------------------------|
											  
e|------------------------------------------------------------------|
B|-------5~----7-7b9~-7b9r7p5---—5~----4h5-4------------------------|
G|--4h6---------------------------------------4-4h6~----------------|
D|------------------------------------------------------------------|
A|------------------------------------------------------------------|
E|------------------------------------------------------------------|

e|-------------------------------------------------8------8---------|
B|---7h9-9------7h9-9------7h9-9-------7h9-9----------9~-----9~-----|
G|--------6----------6----------6-----------6-----------------------|
D|---------6----------6----------6-----------6-------------------x2-|
A|------------------------------------------------------------------|
E|------------------------------------------------------------------|
	Second time around, instead of the second 8, 9 do this
e|------------------------------------------------------------------|
B|---9h12--9--7---7p5----9------------------------------------------|
G|--------------------6---------------------------------------------|
D|------------------------------------------------------------------|
A|------------------------------------------------------------------|
E|------------------------------------------------------------------|

Verse riff once through and then the chorus to finish off

Pretty easy, hope you enjoy.
            
Tabs too difficult? Try these video lessons and learn fast.




comments powered by Disqus
↑ Back to top | Tablatures and chords are parodies/interpretations of the original songs. You may use it for private study, scholarship, research or language learning purposes only