» » »

Bourree Tabs (ver.1)

Artists:  A B C D E F G H I J K L M N O P Q R S T U V W X Y Z # 

Bourree Tabs (ver.1)

George Frideric Handel
Rating:
0/5 (0 votes)

Hard to play? Try these video lessons and learn fast.
                                            BOURREE FROM WATER MUSIC
                      As recorded by George Frideric Handel

Music by George Frideric Handel

Gtr I (E A D G B E) - 'Untitled'

  Q=129
 4/4
  Gtr I
  H.      Q      Q  Q  Q  Q    Q  Q  Q  Q    Q  Q  Q  Q    Q   Q  Q  E E
|------------||-----------0--|----4--2-----|----0--2--0--|-0-------------|
|---------0--||o----2--0-----|-4-----------|-------------|-----0---------|
|------------||--1-----------|----------2--|-1-----------|---------------|
|---------1--||--2--------2--|----2--1-----|-------------|--------2--4-2-|
|------------||o----0--------|-2--------2--|-------0--2--|---------------|
|------------||--------4-----|-------------|-0--4--------|-0---------4---|
  H.      Q      Q  Q  Q  Q    Q  Q  Q  Q    Q  Q  Q  Q    H.        Q


                                              1.               2.
  Q  Q  Q  Q    Q  Q  E E Q    E E Q   Q  Q    H.        Q      H.        Q
|-------------|-----------0--|---0-2---------|---------------||---------------||
|----------0--|----4--2-4----|-4-------------|-0---------0--o||-0---------0---||
|----1--------|-3------------|------------3--|---------------||---------------||
|-1--2--4-----|--------------|-----1-2-4--2--|-1---------1---||-1-------------||
|-2-----6--2--|----2--1------|-2-------------|--------2-----o||--------2------||
|-------------|-2---------2--|---------------|-----2---------||-----2---------||
  Q  Q  Q  Q    Q  Q  Q   Q    Q   E E Q  Q    Q   Q  Q  Q      Q   Q  Q  Q


    Q  Q  Q  Q    Q  Q  Q  Q    Q  Q  Q  E E   E E Q  Q  Q    E E Q  Q  Q
||-----4--2-----|----------0--|----4--2--0---|-0-2-4-----1--|-2-4-5-----2--|
||o-4--------0--|----2--1-----|-4----------4-|--------2-----|--------2-----|
||--------------|-1-----1-----|--------------|--------------|--------------|
||-----2--1-----|-2-----------|-4--2--1------|--------------|--------------|
||o----------2--|----4-----4--|--------------|-4------4--2--|-0---------0--|
||--------------|-------------|----------4---|--------------|--------2-----|
    Q  Q  Q  Q    Q  Q  Q  Q    Q  Q  Q  Q     H      Q  Q    H      Q  Q


  E E Q  Q   Q    E E Q  Q  Q    E E Q  Q  Q    Q  Q  Q  Q    Q  Q  E E Q
|-----2---------|--------------|--------------|----------0--|----4--2-4-5---|
|-4-5----0------|-----0--------|-----------0--|----2--0-----|-4-------------|
|------------2--|-1-2----------|--------------|-1-----------|---------------|
|------------1--|-2------4--2--|-1-2-4-----1--|-2-----------|----2--1-------|
|-2------2-4----|--------0-----|-2------2-----|----0--------|-2---------2---|
|---------------|--------------|--------------|-------4--0--|---------------|
  H      E E Q    H      H       H      Q  Q    Q  Q  Q  Q    Q  Q  Q   Q


                                                1.             2.
  Q  E E E E Q    Q  E E Q  Q    E E Q  Q  E E   H.      Q      H.      Q
|-4--2-0---0-2--|-0------------|---------------|---------2---||-------------|
|--------4------|----4-2-0-----|-----0---------|------------o||-------------|
|---------------|-----------2--|-1-2----1------|-------------||-------------|
|---------------|----2---1-----|-----------4-2-|-2-----------||-2-----------|
|--------2---0--|-----------2--|--------2--2---|------------o||-------------|
|-0-------------|-4------------|-0-------------|-0-----------||-0-----------|
  H      Q   Q    Q  Q   Q  Q    H      Q  Q     H.      Q      H.      Q
            
Hard to play? Try these video lessons and learn fast. | Correct




comments powered by Disqus
↑ Back to top | Tablatures and chords are parodies/interpretations of the original songs. You may use it for private study, scholarship, research or language learning purposes only