>
 >
Bourree 1

Bourree 1 Guitar Tabs

George Frideric Handel - Bourree 1 chords, tabs, tablatures, lyrics

Guitar lessons | Add/correct | Request | Top 50 tabs Artists:  A B C D E F G H I J K L M N O P Q R S T U V W X Y Z 0-9

Bourree 1 Guitar Tabs – George Frideric Handel

CD, Sheet music, Poster

Do you like Bourree 1? Share with your friends now
TabsTabs v2
-------------------------------------------------------------------------------
                             Bourree - Georg Friedrich Haendel
-------------------------------------------------------------------------------

Tuning: Standard.

e|--------------0-----4--2--------0--2--0-----0------------------------------|
B|--0-----2--0-----4-----------------------4-----0---------------------------|
G|-----1--------------------2--1---------------------------------------------|
D|--1--2--------2-----2--1--------------------------2--4--2------------------|
A|--------0--------2--------2--------0--2------------------------------------|
E|-----------4-----------------0--4-----------0--------4---------------------|

e|--------------------------0----0--2--------------------------------2-------|
B|-----------0-----4--2--4-----4----------------0--------0--0----------------|
G|-----1--------3----------------------------3-------------------------------|
D|--1--2--4-------------------------1--2--4--2--1--------1--1----------------|
A|--2-----6--2-----2--1--------2----------------------2-----------2----------|
E|--------------2-----------2----------------------2-----------2-------------|

e|-----4--2--------------0-----4--2--0-----0--2--4-----1--2--4--5-----2------|
B|--4--------0-----2--1-----4-----------4-----------2--------------2---------|
G|--------------1-----1------------------------------------------------------|
D|-----2--1-----2-----------4--2--1------------------------------------------|
A|-----------2-----4-----4-----------------4--------4--2--0-----------0------|
E|-----------------------------------4-----------------------------2---------|

e|--------2-----------------------------------------------0-----4--2--4--5---|
B|--4--5-----0--------------0--------------------0-----2-----4---------------|
G|-----------------2--1--2--------------------------1------------------------|
D|-----------------1--2--------4--2--1--2--4-----1--2-----------2--1---------|
A|--2--------2--4--------------0-----2--------2--------0-----2-----------2---|
E|--------------------------------------------------------4------------------|

e|--4--2--0-----0--2--0------------------------------------2-----------------|
B|-----------4-----------4--2--0-----------0---------------------------------|
G|--------------------------------2--1--2-----1------------------------------|
D|-----------------------2-----1-----------------4--2--2-------2-------------|
A|-----------2-----0--------------2-----------2--2---------------------------|
E|--0-----------------4--------------0-----------------0-------0-------------|




| /  slide up
| \  slide down
| h  hammer-on
| p  pull-off
| ~  vibrato
| +  harmonic
| x  Mute note
===============================================================================





Comments


Popular George Frideric Handel tabs & chords
For Unto Us A Child Is Born Chords
Allegro Maestoso Tabs
Bourree Tabs
Hallelujah Chorus Tabs
Largo Tabs
Minuet Tabs
Sarabande Tabs
Sonatine Tabs
Hail Holy Queen Salve Regina Ukulele
Sarabande Ukulele


Song lyrics



↑ Back to top | Tablatures and chords are parodies/interpretations of the original songs. You may use it for private study, scholarship, research or language learning purposes only
© 2014 AZChords.com Contact us | Privacy policy | DMCA | Add/correct tabs | Request tabs | Top 50 tabs