» » »

Little Green Bag Bass tabs (ver.3)

Artists:  A B C D E F G H I J K L M N O P Q R S T U V W X Y Z # 

Little Green Bag Bass tabs (ver.3)

George Baker Selection
Rating:
0/5 (0 votes)

Hard to play? Try these video lessons and learn fast.
                
INTRO:    PART # 1                      PART # 2
G:-----------3----------------|--------------------------|
D:--5--3-5-----5-3-5-5-3------|---------3--------3-5---5-|
A:------------------------3-5-|-5--3-5-----5-3-5---------|
E:----------------------------|--------------------------|

VERSE (4X) (BASIC)
G:---|---------3-------------------|----------------------------|
D:--3|-5--35----5---35-------------|---------3---------3-4-5----|
A:-5-|-------------------3-4-5----3|-5--35----5---35------------|
E:---|---------------------------5-|----------------------------|

CHORUS (3X) (BASIC)
G:----------------------------------|---------------------------------|
D:--5-------5-------5-------5-------|-----4-7------447------4-7-------|
A:------5-------55-5----5-------3-4-|5--------5--------5--------5-55-4|
E:----------------------------------|---------------------------------|

G:----------5----|-------------------------------------------------------|
D:------2-5--5---|-----9-9-----999-----10-10-----10-10-----------12------|
A:-3----------5-6|-7-------7------78---------8--------------12-12—12-----|
E:---------------|-------------------------------------10-----------10-10|

*BEFORE GOING TO 2ND VERSE, PLAY PART # 2 OF INTRO 

VERSE (3X)
CHORUS (1X)

TRANSITION BAR TO CHORUS 2 (G TO G#)
(*note: play this after the final part of the normal chorus, then proceed to the chorus in G#)

G:---------------|
D:--------13-----|
A:------13--13---|
E:-11-11------11-|

CHORUS 2 (one step up to G#)
(note: play the chorus exactly the same, only move all the notes up one half-step to G#)
i.e.:

G:--------                       G:--------
D:-5------ etc. – would become = D:-6------
A:-----5--                       A:-----6--
E:--------                       E:--------

*PLAY CHORUS #2 ONLY ONCE, THEN GO BACK TO THE NORMAL CHORUS UNTIL FADEOUT.

song order:

INTRO (#1, #2)
VERSE (4X)
CHORUS (3X)
INTRO (only PART #2)
VERSE (3X)
CHORUS (1X)
TRANSITION BAR (1X)
CHORUS 2(G#) (1X)
CHORUS(normal) to fade out...

This is a pretty simple, yet accurate way to play the song. Feel free to add variations in the verses and choruses, and feedback is welcome.
            
Hard to play? Try these video lessons and learn fast. | Correct




comments powered by Disqus
↑ Back to top | Tablatures and chords are parodies/interpretations of the original songs. You may use it for private study, scholarship, research or language learning purposes only