» » »

Little Green Bag Tabs (ver.1)

Artists:  A B C D E F G H I J K L M N O P Q R S T U V W X Y Z # 

Little Green Bag Tabs (ver.1)

George Baker Selection
Rating:
5/5 (2 votes)

Hard to play? Try these video lessons and learn fast.
                You may recognise this song from the Reservoir Dogs soundtrack. There was already a tab 
this but I thought it was a bit sloppy so here is my version.


Intro:
E|-------------------------------------------|
B|-------------------------------------------|
G|-------3---------------------------------3-|
D|-5-3-5---5-3-5-5-3------------3------3-5--5|
A|-------------------3-5--5-3-5---5-3-5------|
E|-------------------------------------------|

Variation:
E|---------------------------------------------------------|
B|--------3-------------------------------------------3----|
G|--4-2-4---4-2-4-4-2----------------2-------2----4-----4--|
D|--------------------2-4----4-2-4---4-2-4-----------------|
A|---------------------------------------------------------|
E|---------------------------------------------------------|

Solo:
E|-------------------------------------------------------------|
B|-8-8-10-10-8-8-7-7-----7-8-8-7-7-----------------------------|
G|-------------------9--------------9-9-7------7---------------|
D|----------------------------------------9-10--------10--9--7-|
A|-------------------------------------------------------------|
E|-------------------------------------------------------------|

E|--------------------------------------------------------------------|
B|--8-10-8------11-8--11-8--11-8--11-8--11-8-----------------------7--|
G|---------------------------------------------9----7-9-7-10---9-7----|
D|--------------------------------------------------------------------|
A|--------------------------------------------------------------------|
E|--------------------------------------------------------------------|

I got a little green help from Danny francis with the solo but I think the intro and 
are correct now.

Hope you enjoy!


P.S. JW rule
            
Hard to play? Try these video lessons and learn fast. | Correct




comments powered by Disqus
↑ Back to top | Tablatures and chords are parodies/interpretations of the original songs. You may use it for private study, scholarship, research or language learning purposes only