>
 >
Invisible Touch

Invisible Touch Bass Tabs

Genesis - Invisible Touch chords, tabs, tablatures, lyrics

Guitar lessons | Add/correct | Request | Top 50 tabs Artists:  A B C D E F G H I J K L M N O P Q R S T U V W X Y Z 0-9

Invisible Touch Bass Tabs – Genesis

CD, Sheet music, Poster

Do you like Invisible Touch? Share with your friends now
Bass TabsChordsChords v2TabsTabs v2Tabs v3Ukulele
----------------------------------------------------------------------------
			     Invisible Touch - Genesis
----------------------------------------------------------------------------


Tuning: Standard


Intro:
G|---------------------------------------------------------------|
D|--------------------------3p0----------------------------------| x2
A|----------------------0h3----1----------------5-----3----------|
E|--1---1--------1---1-----------1----1-----1--------------------|

Verse:
G|-------------------------------10---------------------------------|
D|--------7---------------------7----------7------------------------|
A|-8--8-----------------8-10--------8--8-----------------8--8--8-10-|
E|-----------5---5--5-------------------------5---5--5--------------|
|
G|--------12--12--12-12------------------------|
D|---------------------------------------------|
A|-10-10-----------------10\-------------------|
E|---------------------------------------------|

Pre-Chorus:
G|-------------------------------------------------------------|
D|------------7-8-10\------------------------------------------|
A|-----8--7-8--------------8--10-8-8\------8-----------7878----|
E|-6--8----------------6--8-------------6---6--6/--6-6---------|

Chorus:
G|---------------------------------------------------------------|
D|--------------------------3p0----------------------------------| x2
A|----------------------0h3----1-----------------5-----3---------|
E|--1---1--------1---1-----------1----1-----1--------------------|

Break:
G|-------------------------------------------|
D|-------------------------------------------|
A|6-6-6-6-6-6-6-6--446-6-6-6--446-6-6-6--446-|
E|---------------46---------46---------46----|

Key Change Chorus:
G|-----|-------------------------------------------|
D|--5--|---------------5p2-------------------------|
A|-----|------------2h5---3-----------------7--5---|
E|3----|-3--3---3--3----------3--3---3--3----------|





Comments


Popular Genesis tabs & chords
Afterglow Chords
Firth Of Fifth Chords
More Fool Me Chords
The Carpet Crawlers 3 Chords
The Chamber Of 32 Doors Chords
Supper Ready Lover Leap 1 Intro Tabs
Supper's Ready Tabs
Down And Out Ukulele
Like It Or Not Ukulele
Tell Me Why Ukulele


Song lyrics



↑ Back to top | Tablatures and chords are parodies/interpretations of the original songs. You may use it for private study, scholarship, research or language learning purposes only
© 2014 AZChords.com Contact us | Privacy policy | DMCA | Add/correct tabs | Request tabs | Top 50 tabs