» » »

Genesis, Invisible Touch Tabs (ver.2)

Artists:  A B C D E F G H I J K L M N O P Q R S T U V W X Y Z # 

Invisible Touch Tabs (ver.2)

Genesis Tabs
 Rating:
4/5 (4 votes)
Invisible Touch lessons Tabs too difficult? Try these video lessons and learn fast
1
                invisible touch
                                            intro/chorus
E||------------------|------------------|----6--6--6--6----5----|
B||------------------|------------------|----6--6--6--6----6----|
G||------------------|------------------|----5--5--5--5----5----|
D||------------------|------------------|-----------------------|
A||------------------|------------------|-----------------------|
E||------------------|------------------|-----------------------|

------------------3----|----6--6--6--6----5----|----------------------|
--6--6--6----6----5----|----6--6--6--6----6----|--6----6----6----5----|
--7--7--7----7----5----|----5--5--5--5----5----|--7----7----5----5----|
--8--8--8----8---------|-----------------------|--8----8----5----5----|
-----------------------|-----------------------|----------------------|
-----------------------|-----------------------|----------------------|

----6--6--6--6----5----|------------------3----|----6--6--6--6----5----|
----6--6--6--6----6----|--6--6--6----6----5----|----6--6--6--6----6----|
----5--5--5--5----5----|--7--7--7----7----5----|----5--5--5--5----5----|
-----------------------|--8--8--8----8---------|-----------------------|
-----------------------|-----------------------|-----------------------|
-----------------------|-----------------------|-----------------------|


  end of intro/chorus  verse>>>>>>>>>>>>>>>>>>>>>>>>>>>>>>>>
----------------------|--5-----------------|--5----------------|
--6----6----6----5----|--6-----------------|--6----------------|
--7----7----5----5----|--7-----------------|--7----------------|
--8----8----5----5----|--------------------|--8----------------|
----------------------|--------------------|-------------------|
----------------------|--------------------|-------------------|

--5----------------|--5----------------|--5-----------------|
--5----------------|--6----------------|--6-----------------|
--5----------------|--5----------------|--7-----------------|
-------------------|-------------------|--------------------|
-------------------|-------------------|--------------------|
-------------------|-------------------|--------------------|

--5----------------|--5-----------------|--3----------------|
--6----------------|--5-----------------|--5----------------|
--7----------------|--5-----------------|--5----------------|
--8----------------|--------------------|-------------------|
-------------------|--------------------|-------------------|
-------------------|--------------------|-------------------|

--3----------------|------------------|--1-----------------|
--3----------------|------------------|--3-----------------|
--4----------------|------------------|--3-----------------|
-------------------|------------------|--------------------|
-------------------|------------------|--------------------|
-------------------|------------------|--------------------|

--1-----------------|--1-----------------|--1-----------------|
--1-----------------|--3-----------------|--1-----------------|
--2-----------------|--3-----------------|--2-----------------|
--------------------|--------------------|--------------------|
--------------------|--------------------|--------------------|
--------------------|--------------------|--------------------|


                      end of verse < < <    chorus...
--1----------------|----------1----0----|----6--6--6--6----5----|
--3----------------|----------1----1----|----6--6--6--6----6----|
--3----------------|----------0----0----|----5--5--5--5----5----|
-------------------|--------------------|-----------------------|
-------------------|--------------------|-----------------------|
-------------------|--------------------|-----------------------|...


but with the last verse (or in all verses if you like it) Gtr2 plays:

------------------|------------------|--5------------6----8-|
------------------|------------------|----------------------|
------------------|------------------|----------------------|
------------------|------------------|----------------------|
------------------|------------------|----------------------|
------------------|------------------|----------------------|

-------------------|-------------------|--------------------|
----------6--------|--5----------------|--------------------|
-------------------|-------------------|--5-----------------|
-------------------|-------------------|--------------------|
-------------------|-------------------|--------------------|
-------------------|-------------------|--------------------|

--5------------6----|--8--------13--------|--12----------------|
--------------------|---------------------|--------------------|
--------------------|---------------------|--------------------|
--------------------|---------------------|--------------------|
--------------------|---------------------|--------------------|
--------------------|---------------------|--------------------|

--------------------|--10----------------|------------------|
--13----------------|--------------------|------------------|
--------------------|--------------------|------------------|
--------------------|--------------------|------------------|
--------------------|--------------------|------------------|
--------------------|--------------------|------------------|

--6----------------|--5----------------|--6----------------|--5----------------|
-------------------|-------------------|-------------------|-------------------|
-------------------|-------------------|-------------------|-------------------|
-------------------|-------------------|-------------------|-------------------|
-------------------|-------------------|-------------------|-------------------|
-------------------|-------------------|-------------------|-------------------|

--6----------------|----------8----8-----|------------------|------------------|
-------------------|---------------------|------------------|------------------|
-------------------|---------------------|------------------|------------------|
-------------------|---------------------|------------------|------------------|
-------------------|---------------------|------------------|------------------|
-------------------|---------------------|------------------|------------------|
            
Submit corrections

comments powered by Disqus
↑ Back to top | Genesis Tabs for Invisible Touch. Lyrics for acoustic guitar and electric guitar. 1 Tablatures and chords are parodies/interpretations of the original songs. You may use it for private study, scholarship, research or language learning purposes only