» » »

I Know What I Like Tabs (ver.1)

Artists:  A B C D E F G H I J K L M N O P Q R S T U V W X Y Z # 

I Know What I Like Tabs (ver.1)

Genesis
Rating:
0/5 (0 votes)

Hard to play? Try these video lessons and learn fast.
                I Know What I Like by Genesis

I Like this song very well.

E|-------------------| This is what Steve Hackett plays
B|--2---3---2---0----| on his sitar in the verses.
G|----2---2---2---0--|
D|-------------------|
A|-------------------|
E|-------------------|

I hope this is right. 

This is to show the bassline:
Verse
E|-------------------|-------------------|-------------------|
B|--2---3---2---0----|--2---3---2---0----|--2---3---2---0----|
G|----2---2---2---0--|----2---2---2---0--|----2---2---2---0--|
D|-------------------|-------------------|-------------------|
A|-------------------|-------------------|-------------------|
E|-------------------|-------------------|-------------------| 
 |				 		       	     |
G|-------------------|----------------2--|-------------------|
D|----------------2--|-------------------|-------------------|
A|--0----------------|--0----------------|--0----------------|
E|-------------------|-------------------|-------------------|

E|-------------------|-------------------|-------------------|
B|--2---3---2---0----|--2---3---2---0----|--2---3---2---0----|
G|----2---2---2---0--|----2---2---2---0--|----2---2---2---0--|
D|-------------------|-------------------|-------------------|
A|-------------------|-------------------|-------------------|
E|-------------------|-------------------|-------------------| 
 |							     |		  
G|-------------------|----------------2--|-------------------|
D|----------------2--|-------------------|-------------------|
A|--0----------------|--0----------------|--0----------------|
E|-------------------|-------------------|-------------------|

E|-------------------|-------------------|-------------------|
B|--2---3---2---0----|--2---3---2---0----|--2---3---2---0----|
G|----2---2---2---0--|----2---2---2---0--|----2---2---2---0--|
D|-------------------|-------------------|-------------------|
A|-------------------|-------------------|-------------------|
E|-------------------|-------------------|-------------------| 
 |							     |
G|-------------------|----------------2--|-------------------|
D|-------------------|-------------------|-------------------|
A|--0-0-----0-2------|--0-0--------------|--0--00000000000---|
E|--------------0----|-------------------|-------------------|
This is only the bassline from the first verse.
            
Hard to play? Try these video lessons and learn fast. | Correct




comments powered by Disqus
↑ Back to top | Tablatures and chords are parodies/interpretations of the original songs. You may use it for private study, scholarship, research or language learning purposes only