» » »

Genesis, I Know What I Like Bass tabs (ver.1)

Artists:  A B C D E F G H I J K L M N O P Q R S T U V W X Y Z # 

I Know What I Like Bass tabs (ver.1)

Genesis Tabs
Rating:
0/5 (0 votes)
I Know What I Like lessons Tabs too difficult? Try these video lessons and learn fast
                GENESIS 
       I KNOW WHAT I LIKE ( IN YOUR WARDROBE )
  

     

    CHORUS 
                         
    |-------------------|-------------------|--------------------|------------4--46-7-|------------4--46-7-|
    |19/----------------|------------4--467-|------------4--46-7-|------4--5h7--------|------4--5h7--------|
    |-------------------|------4--5h7-------|------4--5h7--------|5--5h7--------------|5--5h7--------------|
    |-------------------|5--5h7-------------|5--5h7--------------|--------------------|--------------------|


    |-------------------|--------------------|------------4--46-7-|------2-------2----|------2--------2----|
    |------------4--467-|------------4--46-7-|------4--5h7--------|-------------------|--------------------|
    |------4--5h7-------|------4--5h7--------|5--5h7--------------|-0--------0--------|-0--------0---------|
    |5--5h7-------------|5--5h7--------------|--------------------|-------------------|--------------------|



   THE VERSE AND THE CODA ARE IN MAJOR SCALE OF "A".
            
Submit corrections

comments powered by Disqus
↑ Back to top | Genesis Bass for I Know What I Like. Lyrics for acoustic guitar and electric guitar. Tablatures and chords are parodies/interpretations of the original songs. You may use it for private study, scholarship, research or language learning purposes only