» » »

Gbh, Slut Tabs (ver.2)

Artists:  A B C D E F G H I J K L M N O P Q R S T U V W X Y Z # 

Slut Tabs (ver.2)

Gbh Tabs
 Rating:
4/5 (4 votes)
Slut lessons Tabs too difficult? Try these video lessons and learn fast
1
                -------------------------------------------------------------------------------
                             sl*t - Gbh
-------------------------------------------------------------------------------

Tuning:standard

e|-3---2---0---2---3---2---0---2-2--x-33--22--00--22--33--2--0--2-2-----|
B|-3---3---3---3---3---3---3---3-3--x-33--33--33--33--33--3--3--3-3-----|
G|-2---2---2---2---2---2---2---2-2--x-22--22--22--22--22--2--2--2-2-----|
D|-0---o---o---0---0---0---0---0-0--x-00--00--00--00--00--0--0--0-0-----|
A|----------------------------------------------------------------------|
E|----------------------------------------------------------------------|x3 

e|-------------------------------------------------------------|
B|-------------------------------------------------------------|
G|-5-----5-----5-----7---x-77777777777777777777-7777777777-----|
D|-5--5--5--5--5--7--7---x-77777777777777777777-7777777777-----|
A|-3--5--3--5--3--7--5---x-55555555555555555555-5555555555-----|
E|----3-----3-----5--------------------------------------------|

VERSE:
e|-----------------------------|
B|-----------------------------|
G|-7777777777----5---5---5-----|
D|-7777777777--5-5-5-5-5-5-----|
A|-5555555555--5-3-5-3-5-3-----|
E|-------------3---3---3-------|x6

CHORUS:
e|------------------------------------|
B|------------------------------------|
G|--------7--6--4--6------------------|
D|-77777--7--6--4--6--77777--5--9-----|
A|-77777--5--4--2--4--77777--5--9-----|
E|-55555--------------55555--3--7-----|x2

BRIDGE:
e|--------------------------------|
B|--------------------------------|
G|----------------------55555-----|
D|-55555--77777--88888--55555-----|
A|-55555--77777--88888--33333-----|
E|-33333--55555--66666------------|x3

e|-------------------------------|
B|-------------------------------|
G|---------------------5--55-----|
D|-55555--77777--8--8--5--55-----|
A|-55555--77777--8--8--3--33-----|
E|-33333--55555--6--6------------|

**Charged** Grievous. Bodily. Harm. 





 
            
Submit corrections

comments powered by Disqus
↑ Back to top | Gbh Tabs for Slut. Lyrics for acoustic guitar and electric guitar. 1 Tablatures and chords are parodies/interpretations of the original songs. You may use it for private study, scholarship, research or language learning purposes only