» » »

Gbh, Lycanthropy Tabs (ver.1)

Artists:  A B C D E F G H I J K L M N O P Q R S T U V W X Y Z # 

Lycanthropy Tabs (ver.1)

Gbh Tabs
Rating:
0/5 (0 votes)
Lycanthropy lessons Tabs too difficult? Try these video lessons and learn fast
                -------------------------------------------------------------------------------
Lycanthropy - Charged G.B.H. 
Leather, Bristles, Studs, and Acne
-------------------------------------------------------------------------------

Tuning: EADGBE

e|---------------------------|
B|---------------------------|
G|---------------------------|
D|-11--9--11-X-X-X-X-X-X-X-X-| x4
A|-11--9--11-X-X-X-X-X-X-X-X-|
E|--9--7---9-X-X-X-X-X-X-X-X-| 

e|------------------------------------------|
B|------------------------------------------|
G|-------------9-9-9-9-11-11-11-11-12--11-9-|
D|-11-11-11-11-9-9-9-9-11-11-11-11-12--11-9-| x6
A|-11-11-11-11-7-7-7-7--9--9--9--9-10---9-7-|
E|--9--9--9--9------------------------------|

e|---------------------------|
B|---------------------------|
G|---------------------------|
D|-11--9--11-X-X-X-X-X-X-X-X-| x4
A|-11--9--11-X-X-X-X-X-X-X-X-|
E|--9--7---9-X-X-X-X-X-X-X-X-| 

e|------------------------------------------|
B|------------------------------------------|
G|-------------9-9-9-9-11-11-11-11-12--11-9-|
D|-11-11-11-11-9-9-9-9-11-11-11-11-12--11-9-| x2
A|-11-11-11-11-7-7-7-7--9--9--9--9-10---9-7-|
E|--9--9--9--9------------------------------|

e|-------------------------------------|
B|-------------------------------------|
G|---------------------9-9-9-9-9-9-9-9-|
D|-12-12-12-12-7-7-7-7-9-9-9-9-9-9-9-9-| x2
A|-12-12-12-12-7-7-7-7-7-7-7-7-7-7-7-7-|
E|-10-10-10-10-5-5-5-5-----------------|

e|------------------------------------------|
B|------------------------------------------|
G|-------------9-9-9-9-11-11-11-11-12--11-9-|
D|-11-11-11-11-9-9-9-9-11-11-11-11-12--11-9-| x6
A|-11-11-11-11-7-7-7-7--9--9--9--9-10---9-7-|
E|--9--9--9--9------------------------------|

e|---------------------------|
B|---------------------------|
G|---------------------------|
D|-11--9--11-X-X-X-X-X-X-X-X-| x4
A|-11--9--11-X-X-X-X-X-X-X-X-|
E|--9--7---9-X-X-X-X-X-X-X-X-|

e|------------------------------------------|
B|------------------------------------------|
G|-------------9-9-9-9-11-11-11-11-12--11-9-|
D|-11-11-11-11-9-9-9-9-11-11-11-11-12--11-9-| x2
A|-11-11-11-11-7-7-7-7--9--9--9--9-10---9-7-|
E|--9--9--9--9------------------------------|

e|-------------------------------------|
B|-------------------------------------|
G|---------------------9-9-9-9-9-9-9-9-|
D|-12-12-12-12-7-7-7-7-9-9-9-9-9-9-9-9-| x2
A|-12-12-12-12-7-7-7-7-7-7-7-7-7-7-7-7-|
E|-10-10-10-10-5-5-5-5-----------------|

e|------------------------------------------|
B|------------------------------------------|
G|-------------9-9-9-9-11-11-11-11-12--11-9-|
D|-11-11-11-11-9-9-9-9-11-11-11-11-12--11-9-| x6
A|-11-11-11-11-7-7-7-7--9--9--9--9-10---9-7-|
E|--9--9--9--9------------------------------|

e|---------------------------|
B|---------------------------|
G|---------------------------|
D|-11--9--11-X-X-X-X-X-X-X-X-| x4
A|-11--9--11-X-X-X-X-X-X-X-X-|
E|--9--7---9-X-X-X-X-X-X-X-X-|

e|------------------------------------------|
B|------------------------------------------|
G|-------------9-9-9-9-11-11-11-11-12--11-9-|
D|-11-11-11-11-9-9-9-9-11-11-11-11-12--11-9-| x2
A|-11-11-11-11-7-7-7-7--9--9--9--9-10---9-7-|
E|--9--9--9--9------------------------------|

e|-------------------------------------|
B|-------------------------------------|
G|---------------------9-9-9-9-9-9-9-9-|
D|-12-12-12-12-7-7-7-7-9-9-9-9-9-9-9-9-| x2
A|-12-12-12-12-7-7-7-7-7-7-7-7-7-7-7-7-|
E|-10-10-10-10-5-5-5-5-----------------|

e|------------------------------------------|
B|------------------------------------------|
G|-------------9-9-9-9-11-11-11-11-12--11-9-|
D|-11-11-11-11-9-9-9-9-11-11-11-11-12--11-9-| x3
A|-11-11-11-11-7-7-7-7--9--9--9--9-10---9-7-|
E|--9--9--9--9------------------------------|

e|-------------------------------------------------|
B|-------------------------------------------------|
G|-------------9-9-9-9-11-11-11-11-12--11-9--------|
D|-11-11-11-11-9-9-9-9-11-11-11-11-12--11-9--------|
A|-11-11-11-11-7-7-7-7--9--9--9--9-10---9-7--------|
E|--9--9--9--9-------------------------------------|

e|--------------------------------------------------------|
B|--------------------------------------------------------|
G|--------------------------------------------------------|
D|--------------------------------------------------------|
A|--------------------------------------------------------|
E|-9-11-9-11-9-11-9-11-9-11-9-11-9-11-9-11-9-11-9-11-9-11-|

e|----------------------------|
B|----------------------------|
G|----------------------------|
D|----------------------------| 
A|----------------------------|
E|-11^h-11-11^h-11-11^w----11-|

| ^w whole step bend
| ^h half step bend
| /  slide up
| \  slide down
| h  hammer-on
| p  pull-off
| ~  vibrato
| +  harmonic
| X  Mute note
===============================================================================
            
Submit corrections

comments powered by Disqus
↑ Back to top | Gbh Tabs for Lycanthropy. Lyrics for acoustic guitar and electric guitar. Tablatures and chords are parodies/interpretations of the original songs. You may use it for private study, scholarship, research or language learning purposes only