» » »

Sick Boy Tabs (ver.1)

Artists:  A B C D E F G H I J K L M N O P Q R S T U V W X Y Z # 

Sick Boy Tabs (ver.1)

Gbh
Rating:
5/5 (3 votes)

Hard to play? Try these video lessons and learn fast.
                Band:G.B.H

Intro:             1st part
e---------------   -----------------|
b---------------   -----------------|
g---------------   -----------------|
d---------------   ---9999-7-9999---|
a----7-5-4-55---   ---7777-5-7777---|
e---0-0-0-0-----   -----------------|
    P P P P

2nd part                                  3rd part
e--------------------------------------   -----------------------|
b--------------------------------------   -----------------------|
g--------------------------------------   -----------------------|
d---11111111-12-11111111-9999-7-9999---   ---11-99-11-11-12-11---|
a----9-9-9-9-10--9-9-9-9-7777-5-7777---   ----9-77--9--9-10--9---|
e--------------------------------------   -----------------------|

4th part                          Song Structure:
e------------------------------   Intro------| x8
b------------------------------   1st part---| x8
g------------------------------   2nd part---| x3
d---9---9---9---Pick Scratch---   1st part---| x8
a---7---7---7------------------   2nd part---| x3
e---0--------------------------   3rd part---| x4
                                  4th part:
                                  1st part: x8
                                  2nd part: x3
                                  1st part: x8
                                  2nd part: x3
                                  1st part: x16

This is one bad ass song its easy and its catchy.Try playing it with the same rhythm as 
do or else it may sound like cr*p.Also I didn't even bother to put the solo since the 
in the song is really f**ked up and could only hear parts of it.
            
Hard to play? Try these video lessons and learn fast. | Correct




comments powered by Disqus
↑ Back to top | Tablatures and chords are parodies/interpretations of the original songs. You may use it for private study, scholarship, research or language learning purposes only