» » »

Filth In The Beauty Tabs (ver.2)

Artists:  A B C D E F G H I J K L M N O P Q R S T U V W X Y Z # 

Filth In The Beauty Tabs (ver.2)

Gazette
Rating:
0/5 (0 votes)

Hard to play? Try these video lessons and learn fast.
                !!!TAB UPDATE!!! 
I've updated the tab, because i've lost two notes.

Hi. This is a Filth of the beauty tab.
It's figured out by ear i didn't copy someone's hard work.

~ - Let ring
* - natural harmonic
\\ - slide down

The intro - first guitar - Aoi.
D|-5-------------------|-5-----------8-6-5------|
A|-----6-8-----6-------|-----6-8-----------8----|
F|---7-----5-7---7-----|---7-----5-7------------|
C|---------------------|------------------------|
G|---------------------|------------------------|
C|---------------------|------------------------|


D|-5-------------------|-5----------------------|
A|-----6-8-----6-------|-----6-8----------------|
F|---7-----5-7---7-----|---7-----5~-------------|
C|---------------------|------------------------|
G|---------------------|------------------------|
C|---------------------|------------------------|



The intro - second guitar comes after the intro - Uruha and this part Aoi plays too.
D|---------------------------------------------|
A|---------------------------------------------|
F|---------------------------------------------|
C|---------------------------------------------|
G|-0000--00-0-0000-00-0000-0-0-3333-5555-------|
C|-0000--00-0-0000-00-0000-0-0-3333-5555-------|


D|--------------------------------------|
A|--------------------------------------|
F|-------------------------3333-5555----|
C|-------------------------3333-5555----|
G|-0000-0-0--0-0000-0-0----1111-3333-1~-|
C|-0000-0-0--0-0000-0-0--------------1~-|
After this Aoi plays on acoustic guitar again

D|-5-------------------|-5-----------8-6-5------|
A|-----6-8-----6-------|-----6-8-----------8----|
F|---7-----5-7---7-----|---7-----5-7------------|
C|---------------------|------------------------|
G|---------------------|------------------------|
C|---------------------|------------------------|


D|-5-------------------|-5----------------------|
A|-----6-8-----6-------|-----6-8----------------|
F|---7-----5-7---7-----|---7-----5~-------------|
C|---------------------|------------------------|
G|---------------------|------------------------|
C|---------------------|------------------------|
After the acoustic is pre-chorus
Aoi and Uruha.
D|--------------------------------------------------|
A|--------------------------------------------------|
F|--------------------------------------------------|
C|--------------------------------------------------|
G|-1-0--00-000-1-0--00-000-1-0--00-000-1-0--00-000--|
C|-1-0--00-000-1-0--00-000-1-0--00-000-1-0--00-000--|

Now there's a part for a rhytm guitar.

D|--------------|----|--------------|----|--------------|
A|--------------|-5~-|--------------|-5~-|--------------|
F|------3~-|-7~-|-5~-|------3~-|-7~-|-5~-|--------------|
C|-0~-|-3~-|-5~-|-5~-|-0~-|-3~-|-5~-|-5~-|--------------|
G|-0~-|-1~-|-5~-|-3~-|-0~-|-1~-|-5~-|-3~-|-0-0--0-0-1-0-|
C|-0~-|----|-5~-|----|-0~-|----|-5~-|----|-0-0--0-0-1-0-|

And the Chorus
D|------------------------|
A|------------------------|
F|------------------------|
C|------3-333------5-555--|
G|-0-00-1-111-3-33-3-333--|
C|-0-00-------3-33--------|


Now! Uruha play this riff
D|-------------------------------------|
A|-------------------------------------|
F|-------------------------------------|
C|-----5*-------5*--------5*-------5*--|
G|-------------------------------------|
C|-1-0--00-1-0---00-1-0--00-1-0--------|


And here comes an Aoi's Part.
D|-------------------------------------|----|
A|-------------------------------------|----|
F|-------------------------------------|----|
C|-----5*-------5*--------5*-------5*--|----|
G|-\\1-0---00-1-0---00-1-0---00-1-0----|-0~-|
C|-\\1-0---00-1-0---00-1-0---00-1-0----|-0~-|


D|--------------------------|
A|--------------------------|
F|--------------------------|
C|--------------------------|
G|--------------------------|
C|-000333555666555333555----|

And now again pre-chorus
D|--------------------------------------------------|
A|--------------------------------------------------|
F|--------------------------------------------------|
C|--------------------------------------------------|
G|-1-0--00-000-1-0--00-000-1-0--00-000-1-0--00-000--|
C|-1-0--00-000-1-0--00-000-1-0--00-000-1-0--00-000--|


D|--------------|----|--------------|----|--------------|
A|--------------|-5~-|--------------|-5~-|--------------|
F|------3~-|-7~-|-5~-|------3~-|-7~-|-5~-|--------------|
C|-0~-|-3~-|-5~-|-5~-|-0~-|-3~-|-5~-|-5~-|--------------|
G|-0~-|-1~-|-5~-|-3~-|-0~-|-1~-|-5~-|-3~-|-0-0--0-0-1-0-|
C|-0~-|----|-5~-|----|-0~-|----|-5~-|----|-0-0--0-0-1-0-|

And the Chorus again.
D|------------------------|
A|------------------------|
F|------------------------|
C|------3-333------5-555--|
G|-0-00-1-111-3-33-3-333--|
C|-0-00-------3-33--------|

And the outro

D|--------------------------------------------------|
A|--------------------------------------------------|
F|--------------------------------------------------|
C|--------------------------------------------------|
G|-1-0--00-000-1-0--00-000-1-0--00-000-1-0--00-000--|
C|-1-0--00-000-1-0--00-000-1-0--00-000-1-0--00-000--|
            
Hard to play? Try these video lessons and learn fast. | Correct




comments powered by Disqus
↑ Back to top | Tablatures and chords are parodies/interpretations of the original songs. You may use it for private study, scholarship, research or language learning purposes only