>
 >
Filth In The Beauty 2

Filth In The Beauty 2 Bass Tabs

Gazette - Filth In The Beauty 2 chords, tabs, tablatures, lyrics

Guitar lessons | Add/correct | Request | Top 50 tabs Artists:  A B C D E F G H I J K L M N O P Q R S T U V W X Y Z 0-9

Filth In The Beauty 2 Bass Tabs – Gazette

CD, Sheet music, Poster

Do you like Filth In The Beauty 2? Share with your friends now
Bass TabsBass Tabs v2TabsTabs v2
My first tab. Its a little unorganized. There was no tab so I decided to tab it from: 
Go ahead and make changes as needed.
     |----------|
     |----------|
     |----------|
Each |----------| is one beat

G|------------12-12--------12--|--------8---10-10---------|-----------|
D|-----12-12-----------12------|----6-6-------------------|-----------|
A|-10---------------10---------|-6--------8-------9-------|-----------|
E|-----------------------------|--------------------------|-----------|

G|-----------|-------------|------------12-12--------12--|-------8--------|
D|-----------|-------------|-----12-12-----------12------|---6-6----------|
A|-----------|-------------|-10---------------10---------|-6--------------|
E|-----------|-------------|-----------------------------|----------------|

G|-------------------------|------------------------|----------------------------|
D|-------------------------|------------------------|----------------------------|
A|-------------------------|---------------1-13-3-3|----------------------------|
E|-1-1-1-1--1--1-111-1-1-|-1-1-1--1--1-1----------|-1-1-1-1--1--1-1--1--1-1-1--|

G|-------------------------|
D|-1--------33------------|
A|-----1-1--------3--------|
E|-----------------------2-|

G|----------|----------|----------|----------|
D|----------|----------|----------|----------|
A|----------|----------|----------|----------|
E|----------|----------|----------|----------|

G|--------------------|---------------|---------------|--------------|
D|--------------------|-5---5-5--5--5-|---------------|--------------|
A|--------------------|---------------|-6---5-5--6--6-|-3---3-3--3-3-|
E|-1-1-1-1--1-1-1-11-|---------------|---------------|--------------|

G|--------------------|---------------|---------------|------------------|
D|--------------------|-5---5-5--5--5-|---------------|------------------|
A|-3--5-5--3--3--3----|---------------|-6---5-5--6--6-|-3---3-3--3--3----|
E|------------------4-|---------------|---------------|------------------|

G|----------------------|---------------------|---------------------|
D|----------------------|-5---5-5--8--8--8--7-|---------------------|
A|-3---1-1--3--3--3-3/5-|---------------------|-6---6-6--5--5--5--6-|
E|----------------------|---------------------|---------------------|

G|------------------------|
D|-8---8-8--10--10--10--8-|
A|------------------------|
E|------------------------|

G|----------------------|---------------------|--------------------|
D|----------------------|-5---5-5--8--8--8--7-|--------------------|
A|-8---8-8--8---8--8--9-|---------------------|-6--6-6--5--5--5--6-|
E|----------------------|---------------------|--------------------|


G|--------------------|-------------------------|---------------------------|
D|-8---8-8--10--10--8-|-8---8-8---8--8----1---0-|---------------------------|
A|--------------------|-------------------------|---------------------------|
E|--------------------|-------------------------|-1-1-1-1--1--1-1--1--1-1-1-|

G|--------------------------|---------------|---------------|
D|--------------------------|---------------|---------------|
A|---------------------1----|---------------|---------------|
E|-2-1-1-1--1--1-1--1-----1-|---------------|---------------|

G|---------------------------|------------------------------|
D|---------------------------|------------------------------|
A|---------------------------|------------------------------|
E|-2-1-1-1--1--1-1--1--1-1-1-|-2-1-1-1--1--1-2-2-2--2-2-2-2-|

G|--------------------------|-------------------------|
D|--------------------------|-------------------------|
A|---------------------1----|-------------------------|
E|-2-1-1-1--1--1-1--1-----1-|-2-1-1-1--1--1--1--1-1-1-|

G|----------------------------|--------------------------|
D|---------------1-1-1--3-3-3-|------------8--8--8--7--8-|
A|----------------------------|--------------------------|
E|-1-1-1-1--1--1--------------|-1--1-1-1-1---------------|

G|--------------------------|
D|-----------8--8--10--8--7-|
A|-6--6-6-6-----------------|
E|--------------------------|

G|-----------------------|----------------------------|---------------------|
D|------------10--10-----|----------------------------|---------------------|
A|--------------------10-|-8--8-8-8-8-8-----8--8------|---------------------|
E|-6--6-6-6-6------------|-----------------------2--2-|---------------------|

G|---------------------|---------------------|---------------------|
D|---------------------|---------------------|---------------------|
A|---------------------|---------------------|---------------------|
E|---------------------|---------------------|---------------------|

G|------------------------------|
D|------------------------------|
A|------------------------------|
E|-1--1--1--1----1--1--1--1---1-|

G|-----------------------|------------------------|-------------------------|
D|-----------------------|------------3-3--3------|------------1-1-----1--3-|
A|------------6--5--6--8-|-1-----1--1-------------|-------1--1------1-------|
E|-1-----1--1------------|----------------------2-|-1--1--------------------|

G|--------------------------|-------------------------|
D|-----------3--3-3-3-3-3---|-------------------------|
A|-1--1-1-1---------------2-|------------6-6--5--6--8-|
E|--------------------------|-1-----1--1--------------|

G|------------------------|-------------------------|
D|------------3-3--3------|------------1-1-----1--3-|
A|-1-----1--1-------------|-------1--1------1-------|
E|----------------------2-|-1--1--------------------|

G|---------------------------|
D|-------------3-3--3--------|
A|-1--1-1-1--1---------------|
E|----------------------2--2-|

G|-------|-------|-------|-------------------------|
D|-------|-------|-------|-------------------------|
A|-------|-------|-------|-------------------------|
E|-------|-------|-------|-2--1---1--1-2--1---1--1-|

G|----------------------|------|------|------|------|
D|----------------------|------|------|------|------|
A|----------------------|------|------|------|------|
E|-2--1---1--1-2--1---4-|------|------|------|------|

G|------|------|--------------------------|--------------------|------|
D|------|------|--------------------------|--------------------|------|
A|------|------|--------------------------|--------------------|------|
E|------|------|-1---1-1--1--1----1-2-2-2-|-1---1-1----1---1-1-|------|

G|------|------|------|------|
D|------|------|------|------|
A|------|------|------|------|
E|------|------|------|------|

G|-------|-------|-------------12--12-|-----------------------|
D|-------|-------|------12-12---------|----------3--3--3------|
A|-------|-------|-10-----------------|-1---1-1---------------|
E|-------|-------|--------------------|---------------------2-|

G|-----------------------|---------------------|---------------------------|
D|-------------3--3------|---------------------|---------------------------|
A|-1---1-1--1------------|---------------------|---------------------------|
E|---------------------2-|-1-1-1-1--1-1-1-1--1-|-2-1-1-1--1--1-1--1--1-1-1-|

G|--------------------------|
D|--------------------------|
A|---------------------1----|
E|-2-1-1-1--1--1-1--1-----1-|
G|---------------------------|-------------------------------|
D|---------------------------|-------------------------------|
A|---------------------------|-------------------------------|
E|-2-1-1-1--1--1-1--1--1-1-1-|-2-1-1-1--1--1-1-2-2-2-1-2-2-2-|

G|--------------------|-----------------------------|
D|--------------------|-----------------------------|
A|------------------1-|-----------------------------|
E|-1-1-1-1--1-1--1----|-1-1-1-1--1--1-1--1--1--2--1-|

G|----------------------|-------------------------------|
D|----------------------|-------------------------------|
A|-1------------------1-|-------------------------------|
E|----1--2-1--1-1--1----|-2-1-1-1--1--1-1-2-2-2-1-2-2-2-|

G|---------------------------|---------------------------|
D|---------------------------|---------------------------|
A|---------------------------|---------------------------|
E|-1-1-1-1--1-1-1-1-1--1-1-1-|-1--1----------------------|





Comments


Popular Gazette tabs & chords
Cassis 1 Bass Tabs
Ganges Ni Akai Bara Bass Tabs
Reila Bass Tabs
Cassis Chords
Wakaremichi Chords
Anata No Tame No Kono Inochi Intro Tabs
Cassis 2 Tabs
Toguro Tabs
Shiver Ukulele
Wakaremichi Ukulele


Song lyrics



↑ Back to top | Tablatures and chords are parodies/interpretations of the original songs. You may use it for private study, scholarship, research or language learning purposes only
© 2014 AZChords.com Contact us | Privacy policy | DMCA | Add/correct tabs | Request tabs | Top 50 tabs