» » »

Cassis Tabs (ver.2)

Artists:  A B C D E F G H I J K L M N O P Q R S T U V W X Y Z # 

Cassis Tabs (ver.2)

Gazette
Rating:
4/5 (1 vote)

Hard to play? Try these video lessons and learn fast.
                Intro Aoi
e|---2----0---2|---2---0----2|-------2-------|----------------|
B|------0------|----------0--|---2------2----|-------------3-2|
G|----------2--|-------------|-----2------2--|-----2---2------|
D|-2-----------|-0---0-------|-2------------2|-0-4---4---4----|
A|-------------|-------------|---------------|----------------|
E|-------------|-------------|---------------|----------------|

e|---2---0----2|---2---0----2|-------2-------|----------------|
B|-----0-------|----------0--|---2------2----|----------------|
G|----------2--|-------------|-----2------2--|----------------|
D|-2-----------|-0---0-------|-2------------2|----------------|
A|-------------|-------------|---------------|-0--------------|
E|-------------|-------------|---------------|----------------|
Riff
e|--------------------------------------------------------------|
B|--------------------------------------------------------------|
G|-4--4-----------------7-7-6-6---------------------------------|  x4
D|-4--4--5-5-5--7-7-7-7-5-5-6-6---------------------------------|
A|-2--2--5-5-5--5-5-5-5-5-5-4-4---------------------------------|
E|-------3-3-3--5-5-5-5-----------------------------------------|

e|---2----0---2|---2---0----2|-------2-------|----------------|
B|------0------|----------0--|---2------2----|-------------3-2|
G|----------2--|-------------|-----2------2--|-----2---2------|
D|-2-----------|-0---0-------|-2------------2|-0-4---4---4----|
A|-------------|-------------|---------------|----------------|
E|-------------|-------------|---------------|----------------|
                                                                    x2
e|---2---0----2|---2---0----2|-------2-------|----------------|
B|-----0-------|----------0--|---2------2----|-----3----------|
G|----------2--|-------------|-----2------2--|-----4----------| 
D|-2-----------|-0---0-------|-2------------2|--2--4----------|  
A|-------------|-------------|---------------|-0---2----------|
E|-------------|-------------|---------------|----------------|
Riff
e|--------------------------------------------------------------|
B|--------------------------------------------------------------|
G|-4--4-----------------7-7-6-6---------------------------------|  x4
D|-4--4--5-5-5--7-7-7-7-5-5-6-6---------------------------------|
A|-2--2--5-5-5--5-5-5-5-5-5-4-4---------------------------------|
E|-------3-3-3--5-5-5-5-----------------------------------------|

Verse
e|---2----0---2|---2---0----2|-------2-------|----------------|
B|------0------|----------0--|---2------2----|-------------3-2|
G|----------2--|-------------|-----2------2--|-----2---2------|
D|-2-----------|-0---0-------|-2------------2|-0-4---4---4----|
A|-------------|-------------|---------------|----------------|
E|-------------|-------------|---------------|----------------|
                                                                    x2
e|---2---0----2|---2---0----2|-------2-------|----------------|
B|-----0-------|----------0--|---2------2----|-----3----------|
G|----------2--|-------------|-----2------2--|-----4----------| 
D|-2-----------|-0---0-------|-2------------2|--2--4----------|  
A|-------------|-------------|---------------|-0---2----------|
E|-------------|-------------|---------------|----------------|

Pre-Chorus

e|--------------------------------------------------------|
B|--------------------------------------------------------|
G|--------------------------------------------------------|  x3 (Palm Mute)
D|---5-5-5-7-7-7-8-8-8-9-9-9------------------------------|
A|---5-5-5-7-7-7-8-8-8-9-9-9------------------------------|
E|---3-3-3-5-5-5-6-6-6-7-7-7------------------------------|

     p p   p p   p p   p p 
e|--------------------------------------------------------|
B|--------------------------------------------------------|
G|--------------------------------------------------------|  
D|---5-5-5-5-5-5-5-5-5-5-5-5--7---------------------------|
A|---5-5-5-5-5-5-5-5-5-5-5-5--7---------------------------|
E|---3-3-3-3-3-3-3-3-3-3-3-3--5---------------------------|

e|---------------------------------|
B|---------------------------------|
G|---------------------------------|  
D|------------0-2-4----------------|
A|------0-2-4----------------------|
E|--2-3----------------------------|
Chorus
e|-----------------------------------------------------------|
B|-----------------------------------------------------------|
G|---7-7-7-7-7-----------------------------------------------|   x4
D|---7-7-7-7-7-4-4-4-4-4-5-5-5-5-5-5-7-7-7-7-7---------------| 
A|---5-5-5-5-5-4-4-4-4-4-5-5-5-5-5-5-7-7-7-7-7---------------|
E|-------------2-2-2-2-2-3-3-3-3-3-3-5-5-5-5-5---------------|
     p p p p   p p p p   p p p p   p p p p
e|-----------------------------------------------------------|
B|-----------------------------------------------------------|
G|-----------4---------4---------4---------------------------|  
D|---5-5-4-4-4-5-5-4-4-4-5-5-4-4-4-5-5-4-4-------------------|
A|---5-5-4-4-2-5-5-4-4-2-5-5-4-4-2-5-5-4-4-------------------|
E|---3-3-2-2---3-3-2-2---3-3-2-2---3-3-2-2-------------------|
Solo
e|--------------------------------------------------------------|
B|--------------------------------------------------------------|
G|-4--4-----------------7-7-6-6---------------------------------|  x4
D|-4--4--5-5-5--7-7-7-7-5-5-6-6---------------------------------|
A|-2--2--5-5-5--5-5-5-5-5-5-4-4---------------------------------|
E|-------3-3-3--5-5-5-5-----------------------------------------|

D           F#             G           A
Turaikotosae wasurerukurai anatawo omotteiru
D            F#             G
Aenai yoruwo kazoeru tabini kogareru mune

Pre-Chorus
e|--------------------------------------------------------|
B|--------------------------------------------------------|
G|--------------------------------------------------------|  x3 (Palm Mute)
D|---5-5-5-7-7-7-8-8-8-9-9-9------------------------------|
A|---5-5-5-7-7-7-8-8-8-9-9-9------------------------------|
E|---3-3-3-5-5-5-6-6-6-7-7-7------------------------------|    

Chorus
e|-----------------------------------------------------------|
B|-----------------------------------------------------------|
G|---7-7-7-7-7-----------------------------------------------|   x4
D|---7-7-7-7-7-4-4-4-4-4-5-5-5-5-5-5-7-7-7-7-7---------------| 
A|---5-5-5-5-5-4-4-4-4-4-5-5-5-5-5-5-7-7-7-7-7---------------|
E|-------------2-2-2-2-2-3-3-3-3-3-3-5-5-5-5-5---------------|   

Only Rhythm-Guitar
 
            
Hard to play? Try these video lessons and learn fast. | Correct




comments powered by Disqus
↑ Back to top | Tablatures and chords are parodies/interpretations of the original songs. You may use it for private study, scholarship, research or language learning purposes only