>
 >
Cassis

Cassis Bass Tabs

Gazette - Cassis chords, tabs, tablatures, lyrics

Guitar lessons | Add/correct | Request | Top 50 tabs Artists:  A B C D E F G H I J K L M N O P Q R S T U V W X Y Z 0-9

Cassis Bass Tabs – Gazette

CD, Sheet music, Poster

Do you like Cassis? Share with your friends now
Bass TabsBass Tabs v2ChordsTabsTabs v2Tabs v3Ukulele
So bassically... Reita is the best bassist ever, and Woot! to you for wanting to learn
don't be put off by the fact that it is Reita and you think "I won't be able to do that,"
I am far from being a great bass player and could play it straight away... It is REALLY 
for a Reita bass line but just as well written and fun to play as usual. I highly
I got it 100% though... XD

Tune down one step...


     W                   W                   H.           E  S S
F||-------------------|-------------------|----------------------|
C||-------------------|-------------------|----------------------|
G||--4----------------|--0----------------|--2------------L--4-6-|
D||-------------------|-------------------|----------------------|


  Q.     S S H           H        E  E  E  E     H        Q.     S S
----------------------|-----------------------|----------------------|
----------------------|-----------------4--6--|--7--------6------7-6-|
--7------9-7-6--------|--4--------4--7--------|----------------------|
----------------------|-----------------------|----------------------|


  H        H           W                   E  E  E  E  E  E  E  E
--------------------|-------------------|--------------------------|
--4-----------------|-------------------|--------------------------|
-----------2--------|--L----------------|--4--4--4--4--0--0--0--0--|
--------------------|-------------------|--------------------------|


  E  E  E  E  E  E  E  E     E  E  E  E  E  E  E  E
--------------------------|--------------------------|
--------------------------|--------------------------|
--2--2--2--2--7--7--6--6--|--4--4--4--4--0--0--0--0--|
--------------------------|--------------------------|


  E  E  E  E  E  E  E  E     E  E  E  E  E  E  E  E
--------------------------|--------------------------|
--------------------------|--------------------------|
--2--2--2--2--7--7--6--6--|--4--4--4--4--0--0--0--0--|
--------------------------|--------------------------|


  E  E  E  E  E  E  E  E     E  E  E  E  E  E  E  E
--------------------------|--------------------------|
--------------------------|--------------------------|
--2--2--2--2--7--7--6--6--|--4--4--4--4--0--0--0--0--|
--------------------------|--------------------------|


  E  E  E  E  E  E  E  E     W                   W
--------------------------|-------------------|-------------------|
--------------------------|-------------------|-------------------|
--2--2--2--2--7--7--6--6--|--4----------------|--0----------------|
--------------------------|-------------------|-------------------|


  H        Q.     S S     Q.     S S Q    Q       H        Q.      S S
-----------------------|-----------------------|-----------------------|
-----------------------|-----------------------|-----------------------|
--2--------L------4-6s-|--7------9-7-6---------|--4--------L------/6-7-|
-----------------------|------------------4----|-----------------------|


  H.           E  E     H        H           H        E  E  E  E
---------------------|--------------------|-----------------------|
---------------------|--------------------|-----------------------|
---------------------|--2-----------------|--4--------L--6--7--6--|
--5------------4--5--|-----------4--------|-----------------------|


  W                   W                   H        Q.     S S
-------------------|-------------------|-----------------------|
-------------------|-------------------|-----------------------|
--4----------------|--0----------------|--2--------L------4-6s-|
-------------------|-------------------|-----------------------|


  Q.     S S Q    Q       H        Q.      S S    H.           E  E
-----------------------|-----------------------|---------------------|
-----------------------|-----------------------|---------------------|
--7------9-7-6---------|--4--------L------/6-7-|---------------------|
------------------4----|-----------------------|--5------------4--5--|


  W                   H.           E  E     E  E  E  E  E  E  E  E
-------------------|---------------------|--------------------------|
-------------------|---------------------|--------------------------|
--2----------------|--3------------7--6--|--4--4--4--4--0--0--0--0--|
-------------------|---------------------|--------------------------|


  E  E  E  E  E  E  E  E     E  E  E  E  E  E  E  E
--------------------------|--------------------------|
--------------------------|--------------------------|
--2--2--2--2--7--7--6--6--|--4--4--4--4--0--0--0--0--|
--------------------------|--------------------------|


  E  E  E  E  E  E  E  E     E  E  E  E  E  E  E  E
--------------------------|--------------------------|
--------------------------|--------------------------|
--2--2--2--2--7--7--6--6--|--4--4--4--4--0--0--0--0--|
--------------------------|--------------------------|


  E  E  E  E  E  E  E  E     E  E  E  E  E  E  E  E
--------------------------|--------------------------|
--------------------------|--------------------------|
--2--2--2--2--7--7--6--6--|--4--4--4--4--0--0--0--0--|
--------------------------|--------------------------|


  E  E  E  E  E  E  E  E     W                   W
--------------------------|-------------------|-------------------|
--------------------------|-------------------|-------------------|
--2--2--2--2--7--7--6--6--|--4----------------|--0----------------|
--------------------------|-------------------|-------------------|


  H        Q.     S S     Q.     S S Q    Q       H        Q.      S S
-----------------------|-----------------------|-----------------------|
-----------------------|-----------------------|-----------------------|
--2--------L------4-6s-|--7------9-7-6---------|--4--------L------/6-7-|
-----------------------|------------------4----|-----------------------|


  H.           E  E     H        H           H        E  E  E  E
---------------------|--------------------|-----------------------|
---------------------|--------------------|-----------------------|
---------------------|--2-----------------|--4--------L--6--7--6--|
--5------------4--5--|-----------4--------|-----------------------|


  W                   H.           E  E     H        Q.     S S
-------------------|---------------------|-----------------------|
-------------------|---------------------|-----------------------|
--4----------------|--0------------L--0--|--2--------L------4-6s-|
-------------------|---------------------|-----------------------|


  Q.     S S Q    Q       H        Q.      S S    H.           E  E
-----------------------|-----------------------|---------------------|
-----------------------|-----------------------|---------------------|
--7------9-7-6---------|--4--------L------/6-7-|---------------------|
------------------4----|-----------------------|--5------------4--5--|


  W                   H         E   E  E  E     E  E  E  E  E  E  E  E
-------------------|-------------------------|--------------------------|
-------------------|-------------------------|--------------------------|
--2----------------|--3--------11--11--9--7--|--0--0--0--0--2--2--2--2--|
-------------------|-------------------------|--------------------------|


  E  E  E  E  E  E  E  E     E  E  E  E  E  E  E  E
--------------------------|--------------------------|
--------------------------|--------------------------|
--3--3--3--3--4--4--4--4--|--0--0--0--0--2--2--2--2--|
--------------------------|--------------------------|


  E  E  E  E  E   E  E  E     E  E  E  E  E  E  E  E
---------------------------|--------------------------|
---------------------------|--------------------------|
--3--3--3--3--4--11--9--7--|--0--0--0--0--2--2--2--2--|
---------------------------|--------------------------|


  E  E  E  E  E  E  E  E     E  E  E  E  E  E  E  E
--------------------------|--------------------------|
--------------------------|--------------------------|
--3--3--3--3--4--4--4--4--|--0--0--0--0--0--0--0--0--|
--------------------------|--------------------------|


  E  E  E  E  E  E  E  E     E  E  E  E  E  E  E  E
--------------------------|--------------------------|
--------------------------|--------------------------|
--0--0--0--0--0--0--0--0--|--2--2--2--2--2--2--2--2--|
--------------------------|--------------------------|


  E  E  E  E  E  E  E  E     E  E  E  E  E  E  E  E
-----------------------1--|--------------------------|
--------------1--2--4-----|--------------------------|
-----0--2--3--------------|--------------------------|
--4-----------------------|--0--0--0--0--0--0--0--2--|


  E  E  E  E  E  E  E  E     E  E  E  E  E  E  E  E
--------------------------|--------------------------|
--------------------------|--------------------------|
--------------------------|--------------------------|
--4--4--4--4--4--4--2--4--|--5--5--5--5--5--5--4--5--|


  E  E  E  E  E  E  E  E     E  E  E  E  E  E  E  E
--------------------------|--------------------------|
--------------------------|--------------------------|
-----------------6--7--9--|--------------------------|
--7--7--7--7--7-----------|--0--0--0--0--0--0--0--2--|


  E  E  E  E  E  E  E  E     E  E  E  E  E  E  E  E
--------------------------|--------------------------|
--------------------------|--------------------------|
--------------------------|--------------------------|
--4--4--4--4--4--4--2--4--|--5--5--5--5--5--5--4--5--|


  E  E  E  E  E  E  E  E     E  E  Q    E  E  E  E     E  E  E  E  E  E  E  E
--------------------------|-------------------------|--------------------------|
--------------------------|-------------------------|--------------------------|
--------------------------|-------------3--3-----4--|--L--4--6--6--7--7--6--6--|
--7--7--7--7--7--7--5--4--|--5--5--5----------------|--------------------------|


  E  E  Q     E  E  E  E     E  E  E  E  E  E  E  E     E  E  Q    E  E  E  E
--------------------------|--------------------------|-------------------------|
--------7\----------------|--------------------------|-------------------------|
--------------3--3-----4--|--L--4--3--3--2--2--1--1--|-------------3--3-----4--|
--5--5--------------------|--------------------------|--5--5--5----------------|


  E  E  E  E  E  E  E  E     E  E  Q     E  E  E  E
--------------------------|--------------------------|
--------------------------|--------7\----------------|
--L--4--6--6--7--7--6--6--|--------------3--3--7--6--|
--------------------------|--5--5--------------------|


  E  E  E  E  E  E  E  E     E  E  E  E  E  E  E  E
--------------------------|--------------------------|
--------------------------|--------------------4--6--|
--4--4--4--4--0--0--0--0--|--2--2--2--2--7--7--------|
--------------------------|--------------------------|


  E  E  E  E  E  E  E  E     E  E  E  E  E  E  E  E
--------------------------|--------------------------|
--------------------------|--------------------4--6--|
--4--4--4--4--0--0--0--0--|--2--2--2--2--7--7--------|
--------------------------|--------------------------|


  E  E  E  E  E  E  E  E     E  E  E  E  E  E  E  E
--------------------------|--------------------------|
--------------------------|--------------------4--6--|
--4--4--4--4--0--0--0--0--|--2--2--2--2--7--7--------|
--------------------------|--------------------------|


  E  E  E  E  E  E  E  E     E  E  E  E  E  E  E  E     W
--------------------------|--------------------------|-------------------|
--------------------------|--------------------------|-------------------|
--4--4--4--4--0--0--0--0--|--2--2--2--2--7--7--7--7--|-------------------|
--------------------------|--------------------------|-------------------|


  W                   W                   W                   W
-------------------|-------------------|-------------------|-------------------|
-------------------|-------------------|-------------------|-------------------|
-------------------|-------------------|-------------------|-------------------|
-------------------|-------------------|-------------------|-------------------|


  W                   W                   H           E  E  E  E  E  E  E  E
-------------------|-------------------|-----------|--------------------------|
-------------------|-------------------|-----------|--------------------------|
-------------------|-------------------|-----------|--0--0--0--0--2--2--2--2--|
-------------------|-------------------|-----------|--------------------------|


  E  E  E  E  E  E  E  E     E  E  E  E  E  E  E  E
--------------------------|--------------------------|
--------------------------|--------------------------|
--3--3--3--3--4--4--4--4--|--0--0--0--0--2--2--2--2--|
--------------------------|--------------------------|


  E  E  E  E  E    E   E   E     E  E  E  E  E  E  E  E
------------------------------|--------------------------|
------------------------------|--------------------------|
--3--3--3--3--4--/11S--9S--7--|--0--0--0--0--2--2--2--2--|
------------------------------|--------------------------|


  E  E  E  E  E  E  E  E     E  E  E  E  E  E  E  E
--------------------------|--------------------------|
--------------------------|--------------------------|
--3--3--3--3--4--4--4--4--|--0--0--0--0--0--0--0--0--|
--------------------------|--------------------------|


  E  E  E  E  E  E  E  E     E  E  E  E  E  E  E  E
--------------------------|--------------------------|
--------------------------|--------------------------|
--0--0--0--0--0--0--0--0--|--2--2--2--2--2--2--2--2--|
--------------------------|--------------------------|


  E  E  E  E  E  E  E  E     E  E  E  E  E  E  E  E
--------------------------|--------------------------|
--------------------4--6--|--------------------------|
-----------3--6--7--------|--------------------------|
--4--5--7-----------------|--0--0--0--0--0--0--0--2--|


  E  E  E  E  E  E  E  E     E  E  E  E  E  E  E  E
--------------------------|--------------------------|
--------------------------|--------------------------|
--------------------------|--------------------------|
--4--4--4--4--4--4--2--4--|--5--5--5--5--5--5--4--5--|


  E  E  E  E  E  E  E  E     E  E  E  E  E  E  E  E
--------------------------|--------------------------|
--------------------------|--------------------------|
-----------------6--7--9--|--------------------------|
--7--7--7--7--7-----------|--0--0--0--0--0--0--0--2--|


  E  E  E  E  E  E  E  E     E  E  E  E  E  E  E  E
--------------------------|--------------------------|
--------------------------|--------------------------|
--------------------------|--------------------------|
--4--4--4--4--4--4--2--4--|--5--5--5--5--5--5--4--5--|


  E  E  E  E  E  E  E  E     E  E  E  E  E   E  E  E
--------------------------|---------------------------|
--------------------------|---------------------------|
--------7--7--9--9--6--6--|-----------------/9--9--7--|
--7--7--------------------|--0--0--0--0--0------------|


  E  E  E  E  E   E  E  E     E  E  E  E  E  E  E  E
---------------------------|--------------------------|
---------------------------|--------------------------|
-----------------/9--9--7--|-----------------9--9--7--|
--4--4--4--4--4------------|--5--5--5--5--5-----------|


  E  E  E  E  E  E  E  E     E  E  E  E  E   E  E  E
--------------------------|---------------------------|
--------------------------|---------------------------|
--------------------------|-----------------/9--9--7--|
--7--7--7--7--7--7--5--4--|--0--0--0--0--0------------|


  E  E  E  E  E   E  E  E     E  E  E  E  E  E  E  E
---------------------------|--------------------------|
---------------------------|--------------------------|
-----------------/9--9--7--|-----------------9--9--7--|
--4--4--4--4--4------------|--5--5--5--5--5-----------|


  E  E  E  E  E  E  E  E     E  E  Q    E  E  E  E     E  E  E  E  E  E  E  E
--------------------------|-------------------------|--------------------------|
--------------------------|-------------------------|--------------------------|
--------------------------|-------------3--3-----4--|--L--4--6--6--7--7--6--6--|
--7--7--7--7--7--7--5--4--|--5--5--5----------------|--------------------------|


  E  E  Q     E  E  E  E     E  E  E  E  E  E  E  E     E  E  Q    E  E  E  E
--------------------------|--------------------------|-------------------------|
--------7\----------------|--------------------------|-------------------------|
--------------3--3-----4--|--L--4--3--3--2--2--1--1--|-------------3--3-----4--|
--5--5--------------------|--------------------------|--5--5--5----------------|


  E  E  E  E  E  E  E  E     E  E  Q     E  E   E  E
--------------------------|---------------------------|
--------------------------|--------7\-----------------|
--L--4--6--6--7--7--6--6--|--------------3--3\--------|
--------------------------|--5--5---------------0--2--|


  E  E  E  E  E  E  E  E     E  E  E  E  E  E  E  E
--------------------------|--------------------------|
--------------------------|--------------------------|
--------------------------|--------------------------|
--0--0--0--0--0--0--0--2--|--4--4--4--4--4--4--2--4--|


  E  E  E  E  E  E  E  E     E  E  E  E  E  E  E  E
--------------------------|--------------------------|
--------------------------|--------------------------|
--------------------------|--------------------------|
--5--5--5--5--5--5--4--5--|--7--7--7--7--7--0--2--4--|


  E  E  E  E  E  E  E  E     E  E  E  E  E  E  E  E
--------------------------|--------------------------|
--------------------------|--------------------------|
--------------------------|--------------------------|
--0--0--0--0--0--0--0--2--|--4--4--4--4--4--4--2--4--|


  E  E  E  E  E  E  E  E     E  E  E  E  E  E  E  E
--------------------------|--------------------------|
--------------------------|--------------------------|
--------------------------|--------------------------|
--5--5--5--5--5--5--4--5--|--7--7--7--7--7--7--5--4--|


  E  E  E  E  E  E  E  E     E  E  E  E  E  E  E  E
--------------------------|--------------------------|
--------------------------|--------------------------|
--------------------------|--------------------------|
--0--0--0--0--0--0--0--2--|--4--4--4--4--4--4--2--4--|


  E  E  E  E  E  E  E  E     E  E  E  E  E  E  E  E
--------------------------|--------------------------|
--------------------------|--------------------------|
--------------------------|--------------------------|
--5--5--5--5--5--5--4--5--|--7--7--7--7--7--0--2--4--|


  E  E  E  E  E  E  E  E     E  E  E  E  E  E  E  E
--------------------------|--------------------------|
--------------------------|--------------------------|
--------------------------|--------------------------|
--0--0--0--0--0--0--0--2--|--4--4--4--4--4--4--2--4--|


  E  E  E  E  E  E  E  E
---------------------------|
---------------------------|
-----------------------7/--|
--5--5--5--5--5--5--5------|


   |--6--|  |--6--|  |--6--|  |--6--|  |--6--|  |--6--| |-6-| |-6-|
   S  S  S  S  S  S  S  S  S  S  S  S  S  S  S  S  S  S S S S S S S
--------------------------------------------------------------------|
--------------------------------------------------------------------|
--14-14-14-14-14-14-14-14-14-14-14-14-14-14-14-14-14-14-9-9-9-9-9-9-|
--------------------------------------------------------------------|


  E  E  E  E  E  E  E  E     E  E  E  E  E  E  E  E
--------------------------|--------------------------|
--------------------------|--------------------------|
--------------------------|--------------------------|
--0--0--0--0--0--0--0--2--|--4--4--4--4--4--4--2--4--|


  E  E  E  E  E  E  E  E     E  E  E  E  E  E  E  E
--------------------------|--------------------------|
--------------------------|--------------------------|
--------------------------|--------------------------|
--5--5--5--5--5--5--4--5--|--7--7--7--7--7--5--2--4--|


  E  E  E  E  E  E  E  E     E  E  E  E  E  E  E  E
--------------------------|--------------------------|
--------------------------|--------------------------|
--------------------------|--------------------------|
--0--0--0--0--0--0--0--2--|--4--4--4--4--4--4--2--4--|


  E  E  E  E  E  E  E  E     E  E  E  E  E  E  E  E
--------------------------|--------------------------|
--------------------------|--------------------------|
--------------------------|--------------------------|
--5--5--5--5--5--5--4--5--|--7--7--7--7--7--0--5--4--|


  E  E  E  E  E  E  E  E     E  E  E  E  E  E  E  E
--------------------------|--------------------------|
--------------------------|--------------------------|
--------------------------|--------------------------|
--0--0--0--0--0--0--0--2--|--4--4--4--4--4--4--2--4--|


  E  E  E  E  E  E  E  E     E  E  E  E  E  E  E  E
--------------------------|--------------------------|
--------------------------|--------------------------|
--------------------------|--------------------------|
--5--5--5--5--5--5--4--5--|--7--7--7--7--7--0--5--4--|


  E  E  E  E  E  E  E  E     E  E  E  E  E  E  E  E
--------------------------|--------------------------|
--------------------------|--------------------------|
--------------------------|--------------------------|
--0--0--0--0--0--0--0--2--|--4--4--4--4--4--4--2--4--|


  E  E  E  E  E  E  E  E     E  E  E  E  E  E  E  E     W
--------------------------|--------------------------|-------------------|
--------------------------|--------------------------|-------------------|
--------------------------|--------------------------|-------------------|
--5--5--5--5--5--5--4--5--|--7--7--7--7--7--7--5--4--|--0----------------|


  W
-------------------|-------------------|-------------------|-------------------|
-------------------|-------------------|-------------------|-------------------|
-------------------|-------------------|-------------------|-------------------|
--L----------------|-------------------|-------------------|-------------------|


-------------------|-------------------||
-------------------|-------------------||
-------------------|-------------------||
-------------------|-------------------||


Duration Legend
---------------
W - whole
H - half
Q - quarter
E - 8th
S - 16th
T - 32nd
X - 64th
. - note dotted
|-n-|  - n-tuplets


Tablature Legend
----------------
L - tied note
x - dead note
g - grace note
(n) - ghost note
> - accentuded note
NH - natural harmonic
AH - artificial harmonic
TH - tapped harmonic
SH - semi harmonic
PH - pitch harmonic
h - hammer on
p - pull off
b - bend
br - bendRelease
pb - preBend
pbr - preBendRelease
brb - bendReleaseBend
\n/ - tremolo bar dip
\n - tremolo bar dive
-/n - tremolo bar Release up
/n\ - tremolo bar inverted dip
/n - tremolo bar return
-\n - tremolo bar Release down
S - shift slide
s - legato slide
/ -  slide into from below or out of upwards
\ -  slide into from above or out of downwards
~ - vibrato
W - wide vibrato
tr - trill
TP - tremolo picking
T - tapping
S - slap
P - pop
< - fade in
^ - brush up
v - brush down





Comments


Popular Gazette tabs & chords
Ganges Ni Akai Bara Bass Tabs
Miseinen Bass Tabs
Shiver Bass Tabs
Gentle Lie Chords
Shiver Chords
Wakaremichi Chords
Shichi Gatsu Youka Tabs
Without A Trace Tabs
Silly God Disco Ukulele
Wakaremichi Ukulele


Song lyrics



↑ Back to top | Tablatures and chords are parodies/interpretations of the original songs. You may use it for private study, scholarship, research or language learning purposes only
© 2014 AZChords.com Contact us | Privacy policy | DMCA | Add/correct tabs | Request tabs | Top 50 tabs