» » »

Gaspar Sanz, Las Hachas Tabs (ver.1)

Artists:  A B C D E F G H I J K L M N O P Q R S T U V W X Y Z # 

Las Hachas Tabs (ver.1)

Gaspar Sanz Tabs
 Rating:
4/5 (4 votes)
Las Hachas lessons Tabs too difficult? Try these video lessons and learn fast
                E-|---Song:-Las-Hachas-----------------------------|
D-|---Transcription-by:Christian Liang-------------|
E-|---Enjoy!---------------------------------------|



[1]

E|---------------------------------|---------------------------------|
B|-1---------------0-------0---1---|-----------------0==============-|
G|-0---------------0---2-----------|-2-=============-1==============-|
D|-----0---2---4-------------------|-------------0---2==============-|
A|-3===============----------------|-0---2---3-----------------------|
E|-----------------3==============-|-------------------------0-------|

R  m   p   p   p   m   i   m   i     m   p   p   p   m       p
   i               i                 p               i
   p               p                                 p

L  1      2    4   3   2       1     2   1  3        1
   3                                                 2

[3]

E|---------------------------------|---------------------------------|
B|-1---------------0-------0---1---|---------------------------------|
G|-0---------------0---2-----------|-2-------1-------2-------2-------|
D|-----0---2---4-------------------|-----0---2-----------------------|
A|-3===============----------------|-0==============-0==============-|
E|-----------------3==============-|-------------0-------------------|

R  m   p   p   p   m   i   m   i     m   i   m   p   m       m
   i               i                 p       i       p
   p               p

L  1       2   4   3   2      1      2       1       2       2
   3                                         2

[5]

E|-------------------------0-------|---------------------------------|
B|-1---0-1-3-1-0---0---1-3---3-1-0-|-1==============-0==============-|
G|-0-------------2-----------------|-----------------1==============-|
D|---------------------------------|---------------0-2==============-|
A|-3===============----------------|-0---0-2-3-2-3-------------------|
E|-----------------3==============-|-------------------------0-------|
R  m   m i m i m i m   i m a m i m   i   p p p p p p m       p
   i               p                                 i
   p                                                 p

L  1     1 4 1   2 3   1 4   4 1     1     2 3 2 3   1
   3                                                 2

[7]

E|-------0-1-0-------------0-------|--------------------------------||
B|-1---3-------3-1-0---1-3---3-1-0-|--------------------------------||
G|-0-------------------------------|-2---2---2---1---2---2----------||
D|---------------------------------|--------------------------------||
A|-3===============----------------|-----------------0=============-||
E|-----------------3==============-|-----1---0=====================-||

R  m   m i m i m i m   i m a m i m   i   m   m   i   m   m
   i               p                     p   p       p
   p
L  1   4   1   4 1 3   1 4   4 1     2   2   2   1   2   2
   3                                     1
            
Submit corrections

comments powered by Disqus
↑ Back to top | Gaspar Sanz Tabs for Las Hachas. Lyrics for acoustic guitar and electric guitar. Tablatures and chords are parodies/interpretations of the original songs. You may use it for private study, scholarship, research or language learning purposes only