» » »

Las Hachas Tabs (ver.2)

Artists:  A B C D E F G H I J K L M N O P Q R S T U V W X Y Z # 

Las Hachas Tabs (ver.2)

Gaspar Sanz
Rating:
0/5 (0 votes)

Hard to play? Try these video lessons and learn fast.
                ===============================================================================
Title : Las Hachas 
Artist : Gaspar Sanz
Note : Best Viewed in Courier or Courier New 9 pt.
Standart tuning : EADGBE
===============================================================================

Las Hachas - Gaspar Sanz

    |     .     |     .       |     .     |     .
E||-------------------------|-------------------------|
B||-1-----------0-----0--1--|-------------0-----------|
G||-0-----------0---2-------|-2-----------1-----------|
D||-----0-2--4--------------|----------0--2-----------|
A||-3-----------------------|-0---2-3-----------------|
E||-------------3-----------|-------------------0-----|

 |     .     |     .       |     .     |
-------------------------|-------------------------|
-1-----------0-----0--1--|-------------------------|
-0-----------0---2-------|-2-----1-----2-----2-----|
-----0-2--4--------------|----0--2-----------------|
-3-----------------------|-0-----------0-----------|
-------------3-----------|----------0--------------|

 |       .       |       .         |       .       |       .
-------------------------0-------|---------------------------------|
-1---0-1-3-1-0---0---1-3---3-1-0-|-1---------------0---------------|
-0-------------2-----------------|-----------------1---------------|
---------------------------------|---------------0-2---------------|
-3-------------------------------|-0---0-2-3-2-3-------------------|
-----------------3---------------|-------------------------0-------|

 |       .       |       .         |     .     |
-------0-1-0-------------0-------|-------------------||
-1---3-------3-1-0---1-3---3-1-0-|-------------------||
-0-------------------------------|-2--2--2--1--2--2--||
---------------------------------|-------------------||
-3-------------------------------|-------------0-----||
-----------------3---------------|----1--0-----------||

SUPEREASY !!
                                                          
            
Hard to play? Try these video lessons and learn fast. | Correct




comments powered by Disqus
↑ Back to top | Tablatures and chords are parodies/interpretations of the original songs. You may use it for private study, scholarship, research or language learning purposes only