» » »

Are 'Friends' Electric? Tabs (ver.2)

Artists:  A B C D E F G H I J K L M N O P Q R S T U V W X Y Z # 

Are 'Friends' Electric? Tabs (ver.2)

Gary Numan
Rating:
0/5 (0 votes)

Hard to play? Try these video lessons and learn fast.
                GARY NUMAN
ARE FRIENDS ELECTRIC?




e|---------------------|
B|---------------------|
G|---------------3-----|
D|---5---3---5-----2---|  x 6
A|-3---1---3---1-------|
E|---------------------|

e|---------------------------------------|
B|---------------------------------------|
G|--------------------------------2------|
D|-----2--------3--------5---------------|  x 2
A|-3-3---3--3-3---3--3-3---3--3-3---3----|
E|-1-1------1-1------1-1------1-1--------|

e|---------------------|
B|---------------------|
G|---------------3-----|
D|---5---3---5-----2---|  x 6
A|-3---1---3---1-------|
E|---------------------|

e|---------------------------------------|
B|---------------------------------------|
G|--------------------------------2------|
D|-----2--------3--------5---------------|  x 2
A|-3-3---3--3-3---3--3-3---3--3-3---3----|
E|-1-1------1-1------1-1------1-1--------|

e|--------------------------------------------------|
B|--------------------------------------------------|
G|--------------5---------9-------------------------|
D|-----3------7---7----10---10------10-9------------| x 6
A|---5---5--5--------8-----------10-----------------|
E|-3---------------------------8--------------------|

e|-------------------------------------------------|
B|-------------------------------------------------|
G|-------12-10----10-9-----------------------------|
D|----12-------12-------10-10-9--10-9--10-9--------| x 3
A|-10----------------------------------------------|
E|-------------------------------------------------|

e|----------------------|
B|----------------------|
G|-------12-10----10-9--|
D|----12-------12-------|
A|-10-------------------|
E|----------------------|

e|---------------------|
B|---------------------|
G|---------------3-----|
D|---5---3---5-----2---|  x 6
A|-3---1---3---1-------|
E|---------------------|

e|---------------------------------------|
B|---------------------------------------|
G|--------------------------------2------|
D|-----2--------3--------5---------------|  x 2
A|-3-3---3--3-3---3--3-3---3--3-3---3----|
E|-1-1------1-1------1-1------1-1--------|

e|---------------------|
B|---------------------|
G|---------------3-----|
D|---5---3---5-----2---|  x 6
A|-3---1---3---1-------|
E|---------------------|

e|---------------------------------------|
B|---------------------------------------|
G|--------------------------------2------|
D|-----2--------3--------5---------------|  x 2
A|-3-3---3--3-3---3--3-3---3--3-3---3----|
E|-1-1------1-1------1-1------1-1--------|


e|---------------------|
B|---------------------|
G|---------------3-----|
D|---5---3---5-----2---| 
A|-3---1---3---1-------|
E|---------------------|

e|---------------------------------------|
B|---------------------------------------|
G|--------------------------------2------|
D|-----2--------3--------5---------------|  x 2
A|-3-3---3--3-3---3--3-3---3--3-3---3----|
E|-1-1------1-1------1-1------1-1--------|

e|--------------------------------------------------|
B|--------------------------------------------------|
G|--------------5---------9-------------------------|
D|-----3------7---7----10---10------10-9------------| x 6
A|---5---5--5--------8-----------10-----------------|
E|-3---------------------------8--------------------|

e|-------------------------------------------------|
B|-------------------------------------------------|
G|-------12-10----10-9-----------------------------|
D|----12-------12-------10-10-9--10-9--10-9--------| x 2
A|-10----------------------------------------------|
E|-------------------------------------------------|

e|----------------------|
B|----------------------|
G|-------12-10----10-9--|
D|----12-------12-------|
A|-10-------------------|
E|----------------------|

e|---------------------|
B|---------------------|
G|---------------3-----|
D|---5---3---5-----2---|  x 3
A|-3---1---3---1-------|
E|---------------------|


e|--------------------------|
B|--------------------------|
G|---------------3-2-3-2----|
D|---5---3---5-----------3-1| TO FADE
A|-3---1---3---1------------|
E|--------------------------|
            
Hard to play? Try these video lessons and learn fast. | Correct




comments powered by Disqus
↑ Back to top | Tablatures and chords are parodies/interpretations of the original songs. You may use it for private study, scholarship, research or language learning purposes only