» » »

Are 'Friends' Electric? Bass tabs (ver.1)

Artists:  A B C D E F G H I J K L M N O P Q R S T U V W X Y Z # 

Are 'Friends' Electric? Bass tabs (ver.1)

Gary Numan
Rating:
0/5 (0 votes)

Hard to play? Try these video lessons and learn fast.
                ----------------------------------------------------------------------------
			     ARE FRIENDS ELECTRIC - Gary Numan
----------------------------------------------------------------------------



Well no-one's tabbed it yet,  so here goes:

Tuning: Standard EADG
0.00-0.33                         00.34-00.42
G|-----------------------3--------------------------------------------------|
D|---------------------1---2------------------------------------------------|
A|-303-3-101-1-303-31-------------------------------------------------------|
E|--------------------------------11-11-11-11-11-11-11-11-------------------|


00.43-01.12                           01.14-01.23
G|-----------------------3(3)-----------------------------------------------|
D|---------------------1----(3)2--------------------------------------------|
A|-303-3-101-1-303-31------------(3)----------------------------------------|
E|-----------------------------------11-11-11-11-11-11-11-11----------------|

01.24-01.54
G|-------5------------------------------------------------------------------|
D|--5-7----7------5--------------------5------------------------------------|
A|------------5-7---7------5------5-7-----7---------------------------------|
E|---------------------5-7----7---------------------------------------------|

01.55-02.15
G|--------------------------------------------------------------------------|
D|-5~3~---------------------------------------------------------------------|
A|-----3~1010---------------------------------------------------------------|
E|--------------------------------------------------------------------------|

rest of the song is pretty much a repeat of that,  shouldn't be too difficult to pick up ;-)

| /  slide up
| \  slide down
| h  hammer-on
| p  pull-off
| ~  vibrato
| +  harmonic
| x  Mute note
            
Hard to play? Try these video lessons and learn fast. | Correct




comments powered by Disqus
↑ Back to top | Tablatures and chords are parodies/interpretations of the original songs. You may use it for private study, scholarship, research or language learning purposes only