» » »

Red House Tabs (ver.1)

Artists:  A B C D E F G H I J K L M N O P Q R S T U V W X Y Z # 

Red House Tabs (ver.1)

Gary Moore
Rating:
0/5 (0 votes)

Hard to play? Try these video lessons and learn fast.
                This is the red house, Gary Moore played at the fender strat pack, for the 50th 
of fender. Its a cover by hendrix. Its awesome.

Intro: (all vibratos)
-----11-------11------11-------11-------|
--------10-------10-----10--------10----|
---11-------11------11------11----------|
----------------------------------------|
----------------------------------------|
----------------------------------------|

---10-----10-------10------10------7------|
------9------9--------9-------9----8------|
-10-----10------10------10---------7------|
------------------------------------------|
------------------------------------------|
------------------------------------------|

First Solo:
------------------------7------7-------------------------|
-10^(12)10^(12)10^(12)-10^(12)----10-7-------------------|
---------------------------------------9-7---------------|
-------------------------------------------9-7-----------|
------------------------------------------------7p5------|
----------------------------------------------------7----|

---------------------------|
---------------------------|
-4/9-4~~~--4-x--4h7/9-4~~~-|
-----------4-x-------------|
-----------2-x-------------|
---------------------------|

lots of B pentatonic scale improvising
(b pentatonic scale 2 different positions)
----------------------7-10-------------------------10-12-|
-----------------7-10-------------------------10-12------|
-------------7-9--------------------------9-11-----------|
---------7-9--------------------------9-12---------------|
-----7-9--------------------------9-12-------------------|
7-10------------------------10-12------------------------|
(2 more positions)
-------------------------------12-14--------------------------------14-17-|
-------------------------12-15--------------------------------15-17-------|
-------------------11-14--------------------------------14-16-------------|
-------------12-14--------------------------------14-16-------------------|
-------12-14--------------------------------14-17-------------------------|
-12-14---------------------------------14-17------------------------------|

All these notes are used to solo.


Theres a red house over yonder        yeah!
---------------------------------------------------------------|
---------------------------------------------------------------|
---------------------------------------------------------------|
----------------------------------9\0--------------------------|
----------------------------------9\0--------------------------|
----------------------------------7\0--------------------------|

Thats where my baby stays
---------------------------------------------------------------|
---------------------------------------------------------------|
--------------------------2h4~~~-----19\4------9^-7-7~---------|
---------------------------------------------------------9\0---|
---------------------------------------------------------9\0---|
---------------------------------------------------------------|

Improvise pentatonic licks inbetween the words, gary's are two hard for me too tab.

SOLO
---7-7---------------------------------------12---------------------|
-7-----10/12--7-10-7---7-------15b(17)-12-15----15-12/7----15b17-12-|
---------------------9---9------------------------------------------|
--------------------------------------------------------------------|
--------------------------------------------------------------------|
--------------------------------------------------------------------|


--------------------------------12------12-------------------------|
15b17-12---15b17-12--15b17-12---15b17------15--12--15-17--------15-|
----------------------------------------------------------16-14----|
-------------------------------------------------------------------|
-------------------------------------------------------------------|
-------------------------------------------------------------------|
            
Hard to play? Try these video lessons and learn fast. | Correct




comments powered by Disqus
↑ Back to top | Tablatures and chords are parodies/interpretations of the original songs. You may use it for private study, scholarship, research or language learning purposes only