>
 >
Parisian Walkways

Parisian Walkways Guitar Tabs

Gary Moore - Parisian Walkways chords, tabs, tablatures, lyrics

Guitar lessons | Add/correct | Request | Top 50 tabs Artists:  A B C D E F G H I J K L M N O P Q R S T U V W X Y Z 0-9

Parisian Walkways Guitar Tabs – Gary Moore

CD, Sheet music, Poster

Do you like Parisian Walkways? Share with your friends now
Tabs
"Parisienne Walkways" by Gary Moore

------------------------------------------------12-----------------------
-------------------15b(17)---15-13-12-------------13b(15)----13b(15)--13-
---------------------------------------14-12-10--------------------------
--------------------------------------x----------------------------------
-12/s--7/s---------------------------------------------------------------
------------8/s----------------------------------------------------------



-12-----------------------15-13---10-12-12b(13)--12-10-------------13-12-
----14---12h14p12--------------------------------------12--10-9----------
------------------12-14-----------------------------------------12-------


[First Time]                                            [Second Time]
---------------------------------------------------     -----------------
---------------------------------------------------     -----------------
-14b(16)--14-13------------------------------------     --13-14----------
----------------15---14-12-10----------------------     -----------------
--------------------------------12/s---7/s---------     -----------------
---------------------------------------------8/s---     -----------------



-14-15-17--18b(20)--18b(20)---18-18---12-13-13b(15)--18-18---15b(17)--15b(17)--



----12-13--15b(17)--15b(17)---15--15------------12-13b(15)-13b(15)-------
-14-------------------------------------13-14----------------------------
--------------------------------------14---------------------------------



-12-12-13-12-10-12-10---10-----------------------------------------------
----------------------12--12-10-12-10---12-10--10------------------------
-------------------------------------12------12--12-10-12-10--10---------
------------------------------------------------------------12--12-10-12-



-15-13------------------------------13--13-15-13--15----------------12---
---------12-13-15--12-13-15-12-13-15---------------15b(17)--15-13-15--15-


-13-15-16--13-12----------------------15b(17)-----(feedback ad infinitum)-
------------------14-16--------------------------------------------------



---------------------12-13--12-------------------------------------------
-15-13-12-----------------15-----13b(15)--13-12--------------------15-13-
-----------14-12-------------------------------14--12---s--s--s----------
----------x------15----------------------------------12-/14/12/14--------



---10-12-13--12----------------------13-12---------------12--------------
-12-------------14-12---10-9h10p9-----------13-14---12-14--12------------
----------------------------------12-------------------------14----------



-----5-----------12------------------5-------13-15-15(17)15(17)(15)13-15-
-5-7--5-----12-14--12------------5-7--5-----14---------------------------
-------7--------------14/17/14---------7---14----------------------------





Comments


Popular Gary Moore tabs & chords
Midnight Blues Bass Tabs
Still Got The Blues 3 Bass Tabs
Empty Rooms Live Chords
Out In The Fields Chords
Bad For You Baby Tabs
Devil In Her Heart Tabs
Empty Rooms 2 Tabs
Murder In The Skies Intro Tabs
Run For Cover Tabs
Walking By Myself Tabs


Song lyrics



↑ Back to top | Tablatures and chords are parodies/interpretations of the original songs. You may use it for private study, scholarship, research or language learning purposes only
© 2014 AZChords.com Contact us | Privacy policy | DMCA | Add/correct tabs | Request tabs | Top 50 tabs