» » »

Gary Moore, Blood Of Emeralds Tabs (ver.1)

Artists:  A B C D E F G H I J K L M N O P Q R S T U V W X Y Z # 

Blood Of Emeralds Tabs (ver.1)

Gary Moore Tabs
 Rating:
3.8/5 (5 votes)
Blood Of Emeralds lessons Tabs too difficult? Try these video lessons and learn fast
                Artist    ~ Gary Moore
Song      ~ Blood of emeralds


Short first guitar solo...

----14-14-14-----11-12---11~12~11~----14-14-14----12-11-----------|
-14--------------------------------14-------------------14-12-----|
------------------------------------------------------------------|
------------------------------------------------------------------|
------------------------------------------------------------------|
------------------------------------------------------------------|


----14-14-14-----11-12---14-12------------------------------------|
-14----------------------------14-------12-14-12------------------|
----------------------------------14-14------------14-------------|
------------------------------------------------------------------|
------------------------------------------------------------------|
------------------------------------------------------------------|


----14-14-14-----11-12---11~12~11~----14-14-14----12-11-----------|
-14--------------------------------14-------------------14-12-----|
------------------------------------------------------------------|
------------------------------------------------------------------|
------------------------------------------------------------------|
------------------------------------------------------------------|


----14-14-14-----11-12---14-12------------------------------------|
-14----------------------------14-------12-14-12-------15-14-12---|
----------------------------------14-14----------13-----7--6--5---|
----------------------------------------------------14------------|
------------------------------------------------------------------|
------------------------------------------------------------------|


Main Guitar Solo...

     (A)           (E)           (F#)                  (E)
------------------------------------------------------------------|
------------------------------------------------------------------|
-------------------------------------------------------8(9)-----9-|
------7---10(11)-7----------------7----11---9~11~9~7---------11---|
-7--9---------------9--7----7--9----------------------------------|
------------------------------------------------------------------|

 (D)             (F#)           (Bm)                 (D) (E)
------------------------------------------------------------------|
------9-----------------------------------------------------------|
-11-----11---9----------------------------------------------11----|
-----------------9//11-----9-11-11(12)--11-9--8-8~9~8~---14----14-|
------------------------12----------------------------9-----------|
------------------------------------------------------------------|

 (A)          (E)              (F#)                 (E)
----------------------------------------------------12---------12-|
------14----------------------------14-12~14~12~------------14----|
-14-------14-----------------11-14--------------14----------------|
--------------14//16-14---14--------------------------------------|
------------------------------------------------------------------|
------------------------------------------------------------------|

 (D)                  (F#)                  (D)            (E) (A)
-14---15(16)--14--12----9-----------------------------------------|
--------------------------12-10---12-12(14)--12---10~12~12~----10-|
-----------------------------------------------------------11-----|
------------------------------------------------------------------|
------------------------------------------------------------------|
------------------------------------------------------------------|
            
Submit corrections

comments powered by Disqus
↑ Back to top | Gary Moore Tabs for Blood Of Emeralds. Lyrics for acoustic guitar and electric guitar. Tablatures and chords are parodies/interpretations of the original songs. You may use it for private study, scholarship, research or language learning purposes only