» » »

Bad For You Baby Tabs (ver.1)

Artists:  A B C D E F G H I J K L M N O P Q R S T U V W X Y Z # 

Bad For You Baby Tabs (ver.1)

Gary Moore
Rating:
5/5 (1 vote)

Hard to play? Try these video lessons and learn fast.
                Bad for you baby by Gary Moore

Genre: Bluesrock

Notation legend:

~ means vibrato
~~ means to do a very strong vibrato
v means to bend, for example 15v17 means to bend from the 15th to the 17th fret
* means to do a pinch harmonic
/ means to slide the bass string down to the next note
+ means to play the notes palm muted

THAT'S MY FIRST TAB, SO PLEASE DON'T BE TOO HARSH! :-)

-----------------

Intro:
e: |--------------------------------------------------|
B: |--------------------------------------------------|
G: |--------------------------------------------------|
D: |--------------------------------------------------|  1x
A: |-----------------------5~~------------------------|
E: |-----0--0--5--5--7--7-----------------------------|

e: |--------------------------------------------------|
B: |--------------------------------------------------|
G: |--------------------------------------------------|
D: |--------------------------------------------------|  4x
A: |-----------------------5-5------------------------|
E: |----/0--0--5--5--7--7-----------------------------|

Verse:
e: |--------------------------------------------------|
B: |--------------------------------------------------|
G: |--------------------------------------------------|
D: |--------------------------------------------------|  5x
A: |-----------------------------5+-5+----------------|
E: |-----0+--0+--5+--5+--7+--7+-----------------------|

e: |---------------------------------------------------------------|
B: |---------------------------------------------------------------|
G: |------------------------------------9------9-9-9-9-9-9-9-9-9-9-|
D: |------------------------------------9------9-9-9-9-9-9-9-9-9-9-|
A: |-----------------------------5+-----7------7-7-7-7-7-7-7-7-7-7-|
E: |-----0+--0+--5+--5+--7+--7+---------0------0-0-0-0-0-0-0-0-0-0-|

Chorus:
e: |--------------------------------------------------|
B: |--------------------------------------------------|
G: |--------------------------------------------------|
D: |------------------------5~---------------------5~-|
A: |-----/0--0--5--5--7--7-------0--0--5--5--7--7-----|
E: |--------------------------------------------------|

e: |--------------------------------------------------|
B: |--------------------------------------------------|
G: |--------------------------------------------------|
D: |--------------------------------------------------|
A: |------------------------5~---------------------5~-|
E: |------0--0--5--5--7--7-------0--0--5--5--7--7-----|

e: |--------------------------------------------------|
B: |--------------------------------------------------|
G: |--------------------------------------------------|
D: |--------------------------------------------------|
A: |--------------------------------------------------|
E: |------7~--6~--5~--3~------------------------------|

e: |--------------------------------------------------|
B: |--------------------------------------------------|
G: |--------------------------------------------------|
D: |--------------------------------------------------|
A: |------------------------5~---------------------5~-|
E: |------0--0--5--5--7--7-------0--0--5--5--7--7-----|

Verse:
e: |--------------------------------------------------|
B: |--------------------------------------------------|
G: |----------------------------7*--------------------|
D: |--------------------------------------------------|  5x
A: |--------------------------------------------------|
E: |-----0+--0+--5+--5+--7+--7+-----------------------|

e: |---------------------------------------------------------------|
B: |---------------------------------------------------------------|
G: |------------------------------------9------9-9-9-9-9-9-9-9-9-9-|
D: |------------------------------------9------9-9-9-9-9-9-9-9-9-9-|
A: |-----------------------------5+-----7------7-7-7-7-7-7-7-7-7-7-|
E: |-----0+--0+--5+--5+--7+--7+---------0------0-0-0-0-0-0-0-0-0-0-|

Chorus:
e: |--------------------------------------------------|
B: |--------------------------------------------------|
G: |--------------------------------------------------|
D: |------------------------5~---------------------5~-|
A: |-----/0--0--5--5--7--7-------0--0--5--5--7--7-----|
E: |--------------------------------------------------|

e: |--------------------------------------------------|
B: |--------------------------------------------------|
G: |--------------------------------------------------|
D: |--------------------------------------------------|
A: |------------------------5~---------------------5~-|
E: |------0--0--5--5--7--7-------0--0--5--5--7--7-----|

e: |--------------------------------------------------|
B: |--------------------------------------------------|
G: |--------------------------------------------------|
D: |--------------------------------------------------|
A: |--------------------------------------------------|
E: |------7~--6~--5~--3~------------------------------|

e: |--------------------------------------------------|
B: |--------------------------------------------------|
G: |--------------------------------------------------|
D: |--------------------------------------------------|
A: |------------------------5~---------------------5~-|
E: |------0--0--5--5--7--7-------0--0--5--5--7--7-----|

Solo (I can play it approxametly, but it's definately wrong, so I didn't tab it)

Verse:
e: |--------------------------------------------------|
B: |--------------------------------------------------|
G: |----------------------------7*--------------------|
D: |--------------------------------------------------|  5x
A: |--------------------------------------------------|
E: |-----0+--0+--5+--5+--7+--7+-----------------------|

e: |---------------------------------------------------------------|
B: |---------------------------------------------------------------|
G: |------------------------------------9------9-9-9-9-9-9-9-9-9-9-|
D: |------------------------------------9------9-9-9-9-9-9-9-9-9-9-|
A: |-----------------------------5+-----7------7-7-7-7-7-7-7-7-7-7-|
E: |-----0+--0+--5+--5+--7+--7+---------0------0-0-0-0-0-0-0-0-0-0-|

Chorus:
e: |--------------------------------------------------|
B: |--------------------------------------------------|
G: |--------------------------------------------------|
D: |------------------------5~---------------------5~-|
A: |-----/0--0--5--5--7--7-------0--0--5--5--7--7-----|
E: |--------------------------------------------------|

e: |--------------------------------------------------|
B: |--------------------------------------------------|
G: |--------------------------------------------------|
D: |--------------------------------------------------|
A: |------------------------5~---------------------5~-|
E: |------0--0--5--5--7--7-------0--0--5--5--7--7-----|

e: |--------------------------------------------------|
B: |--------------------------------------------------|
G: |--------------------------------------------------|
D: |--------------------------------------------------|
A: |--------------------------------------------------|
E: |------7~--6~--5~--3~------------------------------|

e: |--------------------------------------------------|
B: |--------------------------------------------------|
G: |--------------------------------------------------|
D: |--------------------------------------------------|
A: |------------------------5~---------------------5~-|
E: |------0--0--5--5--7--7-------0--0--5--5--7--7-----|

e: |--------------------------------------------------|
B: |--------------------------------------------------|
G: |--------------------------------------------------|
D: |--------------------------------------------------|
A: |--------------------------------------------------|
E: |------7~--6~--5~--3~--0---------------------------|

e: |------10v12-10-7-------------10-7-----------------|
B: |-----------------10-8--------8----10-8------------|
G: |----------------------9-7--------------9-7--------|
D: |--------------------------------------------------|
A: |--------------------------------------------------|
E: |--------------------------------------------------|

e: |------10v12-10-7----------------------------------|
B: |-----------------10-8------------8-7--------------|
G: |----------------------9----------8-7--------------|
D: |---------------------------------7-6--------------|
A: |---------------------------------8-7--------------|
E: |--------------------------------------------------|


So, that's all I guess. He plays very many interventions in the song which I didn't tab. 
improvise, like for the solo, something nice in E and everything will be okay.

I wish you much fun with this awesome song by the master! :]
            
Hard to play? Try these video lessons and learn fast. | Correct




comments powered by Disqus
↑ Back to top | Tablatures and chords are parodies/interpretations of the original songs. You may use it for private study, scholarship, research or language learning purposes only