» » »

Garbage, I Think I'm Paranoid Tabs (ver.1)

Artists:  A B C D E F G H I J K L M N O P Q R S T U V W X Y Z # 

I Think I'm Paranoid Tabs (ver.1)

Garbage Tabs
 Rating:
4/5 (4 votes)
I Think I'm Paranoid lessons Tabs too difficult? Try these video lessons and learn fast
1
                -------------------------------------------------------------------------------
			     I THINK I´M PARANOID - Garbage
-------------------------------------------------------------------------------


This is a cool song, is not that dificult to play... 
Verse

e|--7-----------|----------|
B|-8--8-10------|-8-----10-|
G|---------10-7-|---7-10---|
D|--------------|----------|
A|--------------|----------|
E|--------------|----------| x5


Chorus

  W/ distortion  
e|----------|--------------|
B|----------|---x---x-x----|
G|--x---x-x-|-x-8---8-5----|
D|--5---5-3-|-3-8---8-5----|
A|--5---5-3-|-3-6---6-3----|
E|--3---3-1-|-1------------| x4

e|-----------|----------|---------|
B|---10---11-|----10—11-|--10-11--|
G|-8---------|--8-------|-8-------|
D|-----------|----------|---------|
A|-----------|----------|---------|
E|-----------|----------|---------|

Chorus 2nd part
e|---------------------|----------------------------------|
B|---------------------|----------------------------------|
G|---------------------|9--9--9--9--9--9-9--9—9—9—9—9--9-9|
D|-5--5-5\3--3-3/8--8-8|-x------------------x-------------|
A|-5--5-5\3--3-3/8--8-8|-7------------------7-------------|
E|-3--3-3\1--1-1/6--6-6|----------------------------------|

e|---------------------|------------------|---------------|
B|---------------------|------------------|---------------|
G|--------------------|-7-7--7--7--7--7-7-|-7—7—7—7—7--7-7|
D|-5--5-5\3--3-3/8--8-8|-x----------------|--x------------|
A|-5--5-5\3--3-3/8--8-8|-5----------------|--5------------|
E|-3--3-3\1--1-1/6--6-6|----------------------------------|



Solo 1
e|-----------------|-------------|
B|-----------------|-------------|
G|--12h14*(15)--14-|-14*(15)-12--|
D|-----------------|-------------|
A|-----------------|-------------|
E|-----------------|-------------| x4

Interlude 
e|--------|------|-------|--------|
B|--------|------|-------|--------|
G|--------|------|-------|--------|
D|--------|------|-------|--5-----|
A|-2------|2-----|-2-----|--3-----|
E|-0--\\\-|0--\\\-|-0--\\\-|-\\\----| x2

e|----------|----------|---------------|
B|---10---11|----10--11|—--10\\\\\\\\\\--|
G|-8--------|---8------|--8------------|
D|----------|----------|---------------|
A|----------|----------|---------------|
E|----------|----------|---------------|

Solo 2
e|-------------------|----------------------|
B|---11---11-13///16-|----11----16-16-16-15-|
G|-12--12------------|--12---12-------------|
D|-------------------|----------------------|
A|-------------------|----------------------|
E|-------------------|----------------------| x4

Order
1.	verse
2.	chirus
3.	chorus 2nd part
4.	verse
5.	chorus+ solo 1
6.	chorus 2nd part
7.	interlude
8.	chorus 2nd part
9.	chorus + solo 2
10.	verse x4
            
Submit corrections

comments powered by Disqus
↑ Back to top | Garbage Tabs for I Think I'm Paranoid. Lyrics for acoustic guitar and electric guitar. 1 Tablatures and chords are parodies/interpretations of the original songs. You may use it for private study, scholarship, research or language learning purposes only