>
 >
Drive You Home

Drive You Home Chords

Garbage - Drive You Home chords, tabs, tablatures, lyrics

Guitar lessons | Add/correct | Request | Top 50 tabs Artists:  A B C D E F G H I J K L M N O P Q R S T U V W X Y Z 0-9

Drive You Home Chords – Garbage

CD, Sheet music, Poster

Do you like Drive You Home? Share with your friends now
ChordsChords v2TabsUkulele
Band: Garbage
Song Title: Drive You Home
Tuning: Normal


Chords used for this song.

       Am   Asus2  Fmaj7   F2   Fm    
  Fm7    C   Cmaj7  Em     G     F    G/B
E|-------------------------1-----1-----------------------------------3-----1-----------|
B|-----1-----------1-------1-----1-----3-----4-----1-----------------3-----1-----3-----|
G|-----2-----2-----2-------2-----------1-----1-----------------------------2-----------|
D|-----2-----2-----3-------3-----3-----3-----3-----2-----2-----2-----------3-----------|
A|-------------------------1-----------------------3-----3-----2-----------3-----2-----|
E|-------------------------1-----------------------------------------3-----1-----------|

Intro:
Notes in () hold that note let it ring. Play intro twice then go into the verse.

E|-----------------------------------------------(0)---|
B|---------------1---------------0---------------------|
G|-----------0-------0---------------0-----------------|
D|-------2---------------2---------------2-------------|
A|---3-----------------------3---------------3---------|
E|-----------------------------------------------------|

Verse 1.
Below are the picking patterns for the chords for the verse.

C Chord
E|-----------------------------------------------(0)---|
B|---------------1---------------0---------------------|
G|-----------0-------0---------------0-----------------|
D|-------2---------------2---------------2-------------|
A|---3-----------------------3---------------3---------|
E|-----------------------------------------------------|

C Chord
E|-----------------------------------------------(0)---|
B|---------------1---------------0---------------------|
G|-----------0-------0---------------0-----------------|
D|-------2---------------2---------------2-------------|
A|---3-----------------------3---------------3---------|
E|-----------------------------------------------------|

Am chord
E|-----------------------------------------------(0)---|
B|---------------1---------------0---------------------|
G|-----------2-------2---------------2-----------------|
D|-------2---------------2---------------2-------------|
A|---0-----------------------0---------------0---------|
E|-----------------------------------------------------|

Dm Chord
E|---------------1-----------|
B|-----------3-------3-------|
G|-------2---------------2---|
D|---0-----------------------|
A|---------------------------|
E|---------------------------|

G Chord
E|---------------------------|
B|---------------3-----------|
G|-----------0-------0-------|
D|-------0---------------0---|
A|---------------------------|
E|---3-----------------------|

G/B Chord
E|---------------------------|
B|---------------0-----------|
G|-----------0-------0-------|
D|-------0---------------0---|
A|---2-----------------------|
E|---------------------------|


[C]It's funny how
[Am]Even now
[Dm]You still support me [G]after all the things that I've [C]done
[C]You're so good to me
Waiting [Am]patiently
And [Dm]isn't it sad that you [G]still have to ask if I [C]care

Pre Chorus 1:
For the chords in the chorus you can used this guide for accent notes on the chords.

Am Chord	Asus2 Chord	Fmaj7 Chord	F 
Chord
E|-------3---|	E|------0---|	E|----------|	E|---1------|	E|----------|
B|---1-------|	B|---0------|	B|-------1--|	B|---1------|	B|---1------|
G|-----------|	G|----------|	G|----------|	G|----------|	G|---1------|
D|-----------|	D|----------|	D|----------|	D|----------|	D|---3------|
A|-----------|	A|----------|	A|---3------|	A|----------|	A|----------|
E|-----------|	E|----------|	E|----------|	E|----------|	E|----------|

[Am]I never [Asus2]said I was [Fmaj7]perfect [F]
But [Fm]I [Fm6]can [Fm7]take [Fm6]you away [C]	[Cmaj7]

Chorus 1:

Walk on [C]shells tonight  [Cmaj7]
Can't do [Am]right tonight [Asus2]
[Am]And you [C]can't say the word cause I [Am]leap down your throat
So[Em] uptight Am I	[G]
I [F]nev[G]er [Am]said 	[G]I was [Fmaj7]perfect [F]
[F]But [Fm]I can [Fm7]drive [Fm6]you [C]home

Here is a bit of a cheat for this part some of the chords are a bit tough. For names 
I will keep the chord names the same.

F Chord		Fm Chord	Fm7 Chord	Fm6 Chord
E|---1-------|	E|---1------|	E|---1------|	E|---1------|
B|---1-------|	B|---1------|	B|---1------|	B|---3------|
G|---2-------|	G|---1------|	G|---1------|	G|---1------|
D|---3-------|	D|---3------|	D|---1------|	D|---3------|
A|---3-------|	A|---3------|	A|---3------|	A|---1------|
E|---1-------|	E|---1------|	E|---1------|	E|---1------|

Verse 2:

[C]I got down on myself[Cmaj7]
[Am]Working too hard[Asus2]
Driving [Dm]myself to death
Trying to [G]beat up the faults in my head[C]
What a mess I've made[Cmaj7]
Sure we [Am]all make mistakes[Asus2]
But they [Dm]see me so large
That they [G]think I'm immune to the [C]pain

Chorus 2:
Walk on [C]shells tonight  [Cmaj7]
Can't do [Am]right tonight [Asus2]
[Am]And you [C]can't say the word cause I [Am]leap down your throat
So[Em] uptight Am I	[G]
[G]I'm [Am]praying [Asus2]for A 
 [F]
But [Fm]I [Fm6]won't [Fm7]hold [Fm6]my [C]breath

[G]I [F]nev[G]er [Am]said I was [Fmaj7]perfect   [F]
But [Fm]can [Fm6]you [Fm7]take [Fm6]me [C]home





Comments


Popular Garbage tabs & chords
Wicked Ways Bass Tabs
Tell Me Where It Hurts Chords
Witness To Your Love Chords
#1 Crush Tabs
Cherry Lips 1 Tabs
Its All Over But Tabs
Medication 1 Tabs
Push It 1 Tabs
Wicked Ways Tabs
Supervixen Ukulele


Song lyrics



↑ Back to top | Tablatures and chords are parodies/interpretations of the original songs. You may use it for private study, scholarship, research or language learning purposes only
© 2014 AZChords.com Contact us | Privacy policy | DMCA | Add/correct tabs | Request tabs | Top 50 tabs