» » »

Garbage, Cherry Lips Tabs (ver.2)

Artists:  A B C D E F G H I J K L M N O P Q R S T U V W X Y Z # 

Cherry Lips Tabs (ver.2)

Garbage Tabs
 Rating:
4/5 (4 votes)
Cherry Lips lessons Tabs too difficult? Try these video lessons and learn fast
                e -----------------------------------------------------------------------|
B -----------------------------------------------------------------------|
G -----------------------------------------------------------------------|
D ------4-3-2-2----------- 2-1---------------2-4-2-------------- 6-6-3-3|
A --4-4-4-4------4-1---2-2-2-2-5-5---2---0-0-4---------4-0---2-2----------|
E ----------2-2-----------------------4----------------------2-2---------|


chorus

---6-6-6------------4-4-4-4-----------2-2-2-2-2-2-2-2------------4-4-4-4
---4-4-4---4-4-4-4--2-2-2-2-2-2-2-2---0-0-0-0-0-0-0-0--4-4-4-4---2-2-2-2
-----------2-2-2-2----------0-0-0-0--------------------2-2-2-2----------
            
Submit corrections

comments powered by Disqus
↑ Back to top | Garbage Tabs for Cherry Lips. Lyrics for acoustic guitar and electric guitar. Tablatures and chords are parodies/interpretations of the original songs. You may use it for private study, scholarship, research or language learning purposes only