>
 >
A Stroke Of Luck

A Stroke Of Luck Chords

Garbage - A Stroke Of Luck chords, tabs, tablatures, lyrics

Guitar lessons | Add/correct | Request | Top 50 tabs Artists:  A B C D E F G H I J K L M N O P Q R S T U V W X Y Z 0-9

A Stroke Of Luck Chords – Garbage

CD, Sheet music, Poster

Do you like A Stroke Of Luck? Share with your friends now
ChordsTabsUkulele
Song Title: A Stroke Of Luck
Tuning: Normal


Intro Notes:

E|-15----------18----------|
B|----14-15-------14-15----|
G|-------------------------|
D|-------------------------|
A|-------------------------|
E|-------------------------|


Fill Riff A
E|-15-------------|
B|----14-15-------|
G|----------12----|
D|----------------|
A|----------------|
E|----------------|


Verse 1:
[Gm]Hanging by threads of [F]palest [Gm]silver     [F]
[Gm]I could have stayed that [F]way [Gm]forever [F]
[Gm]Bad blood and ghosts wrapped [F]tight [Gm]around me [F]
[Gm]Nothing could ever [F]seem to        [Gm]touch me  (Fill Riff A)
[Eb]I lose what I love [F]most (Fill Riff A)
[Eb]Did you know I was [F]lost until you found [Gm]me? (Fill Riff A)


Chorus:
Guitar I: Plays Chords
Guitar II: Plays Riff

[Gm]A stroke of luck or a gift from God? 
[Bb]Hand of fate or devil's claws? 
[Eb]From below or saints above? 
[F]You came to me 
[Gm]Here comes the cold again 
[Bb]I feel it closing in 
[Eb]It's falling down and all [F]around me  falling 

Guitar II:
E|-----------------------|
B|---3----3----3---------|
G|-0---------0----2b3r2--|
D|------3----------------|
A|-----------------------|
E|-----------------------|

Verse 2:
[Gm]You say that you'll be [F]there to         [Gm]catch me 
[Gm]Or will you only [F]try to         [Gm]trap me (Fill Riff A)
[Gm]These are the rules [F]I make (Fill Riff A)
[Gm]Our chains were meant [F]to [Gm]break 
[Gm]You'll [F]never change     [Gm]me
[Gm]Here comes the cold again 
[Bb]I feel it closing in 
[Eb]You're falling down and all [F]around me falling 

Chorus 2:
[Gm]A stroke of luck or a gift from God? 
[Bb]Hand of fate or devil's claws?  
[Eb]From below or saints above? 
[F]You come to me now 

There is an instrumental interlude here you can play the (Fill Riff A) & (Fill Riff B).

Bridge:

 Fill Riff B
E|-1------3-----------|
B|-----------3--------|
G|--------------------|
D|--------------------|
A|--------------------|
E|--------------------|

[Eb]Don't ask me [Cm]why 
[Eb]Don't even [C]try 

Third Chorus: Play it the same as the first chorus

For the outro Play the intro lick

E|-15----------18----------|
B|----14-15-------14-15----|
G|-------------------------|
D|-------------------------|
A|-------------------------|
E|-------------------------|

Falling, falling 
Falling, falling 
Falling, falling





Comments


Popular Garbage tabs & chords
Breaking Up The Girl 1 Chords
Control Chords
Trick Is To Keep Breathing Chords
Bad Boyfriend Tabs
Bleed Like Me 3 Tabs
Its All Over But 1 Tabs
My Lover's Box Tabs
Run Baby Run Tabs
Temptation Waits Tabs
Why Do You Love Me Tabs


Song lyrics



↑ Back to top | Tablatures and chords are parodies/interpretations of the original songs. You may use it for private study, scholarship, research or language learning purposes only
© 2014 AZChords.com Contact us | Privacy policy | DMCA | Add/correct tabs | Request tabs | Top 50 tabs