» » »

Androgyny Tabs (ver.1)

Artists:  A B C D E F G H I J K L M N O P Q R S T U V W X Y Z # 

Androgyny Tabs (ver.1)

Garbage
Rating:
3/5 (1 vote)

Hard to play? Try these video lessons and learn fast.
                
Intro/Verse:
e|---------------|     
B|---------------|     
G|--7h9h7--------|     
D|--------10-7---|     play this a buncha times during the intro and verse
A|---------------|     
E|---------------| 

Intro. Part 2: (That like little part that's at the beginning and various other spots in the song)
e|--------------------0---|
B|--------1-0-------1-----|
G|------2---------2-------|
D|----2---------2---------|
A|--0---------0-----------|
E|------------------------|

Prechorus:
e|----------------------------|
B|----------------------------|
G|--7h9h7--------7h9h7----7---|  
D|--------10-7---------10-----|   
A|----------------------------|    
E|----------------------------|  

Chorus
e|------------------|
B|------------------|
G|------------------|
D|------2-----------|
A|--------0h2-5-0---|
E|--0-0-------------|


Yeah those are just small parts in the song, not that much guitar and junk, but any
            
Hard to play? Try these video lessons and learn fast. | Correct




comments powered by Disqus
↑ Back to top | Tablatures and chords are parodies/interpretations of the original songs. You may use it for private study, scholarship, research or language learning purposes only