>
 >
Not Great Men 1

Not Great Men 1 Guitar Tabs

Gang Of Four - Not Great Men 1 chords, tabs, tablatures, lyrics

Guitar lessons | Add/correct | Request | Top 50 tabs Artists:  A B C D E F G H I J K L M N O P Q R S T U V W X Y Z 0-9

Not Great Men 1 Guitar Tabs – Gang Of Four

CD, Sheet music, Poster

Do you like Not Great Men 1? Share with your friends now
Bass TabsTabsTabs v2

"Not Great Men"


Tuning: Standard


Andy Gill has a very specific, choppy style of playing, 
which you have to keep in mind when playing along. 
Hey also has a very brittle, barely overdriven tone.
Although you may be tempted to employ a tremelo bar, 
he does not use one.


Intro Riff (staccato)
Riff I
            
E|---------------3-3-3--3---------------|
B|---------------5-5-3--5---------------|
G|------4---2---------------------------|
D|--4---4---2---------------------------| 
A|--4-----------------------------------| X4
E|--------------------------------------|

Bass

G|--------------------------------------|
D|--------------------------------------|
A|---------------7-7-5--7---------------|
E|--2---2---2---------------0---0---0---|



Continuing Intro/Chorus Riff
Riff II

E|--3-3-3--3--3--3--3-3--3-3--|
B|--5-5p3-h5-p3-h5-p3h5-p3h5-p|
G|----------------------------|
D|----------------------------|
A|----------------------------|
E|----------------------------|

Bass

G|----------------------------|
D|----------------------------|
A|--7-7-5--7------------------|
E|---------------0----0----0--|

He also occasionally ends this riff with a little fill. Here it is:

E|--3------------|
B|-p3------------|
G|----5-5-4-3~---|
D|---------------|
A|---------------|
E|---------------|



Verse Riff (after melodica burst)
Riff III

E|---------3------------------|
B|---------3------------------|
G|----------------------------| 
D|----------------------------|
A|----------------------------|
E|12\------------------------12\

Bass

G|----------------------------|
D|----------------------------|
A|--7-7-5--7------------------|
E|---------------0----0----0--|

Transition to CHORUS                on 7th time it leads
Riff IV                             back to Riff II

E|---------3----------3----------3-|---3-----3-----3-3-3--3
B|---------3----------3----------3-|---3-----3--4--5-5-3--5
G|-------------------(3)--------(3)|--(3)------------------ 
D|---------------------------------|-----------------------
A|---------------------------------|-----------------------
E|12\------------------------------|-----------------------

Bass

G|--------------------------------|--------------------------|
D|--------------------------------|--------------------------|
A|--5-5-3--5--3--5--3--5--3--5--5-|5-5-3--5--3--5--3-------3-|
E|--------------------------------|-------------------5-5----|


There's also a short Bass-only bridge more than halfway through 
that's just a full step up to F#

G|----------------------------|
D|----------------------------|
A|----------------------------|
E|--2-2-0--2-----2----2----2--|


That's pretty much it, just piece those riffs together.





Comments


Popular Gang Of Four tabs & chords
545 Bass Tabs
Anthrax Bass Tabs
Call Me Up Bass Tabs
Damaged Goods Bass Tabs
Damaged Goods 3 Bass Tabs
Ether Bass Tabs
Ether 3 Bass Tabs
Ether Remix Bass Tabs
I Love A Man In A Uniform Remix Bass Tabs
I Love A Man In Uniform Intro Tabs


Song lyrics



↑ Back to top | Tablatures and chords are parodies/interpretations of the original songs. You may use it for private study, scholarship, research or language learning purposes only
© 2014 AZChords.com Contact us | Privacy policy | DMCA | Add/correct tabs | Request tabs | Top 50 tabs