» » »

Not Great Men Bass tabs (ver.1)

Artists:  A B C D E F G H I J K L M N O P Q R S T U V W X Y Z # 

Not Great Men Bass tabs (ver.1)

Gang Of Four
Rating:
5/5 (2 votes)

Hard to play? Try these video lessons and learn fast.
                Gang Of Four
Entertainment!


Intro: x4

G-------------------------------|
D------------2-2-0-2------------|
A-------------------------------|
E--2--2--2-------------0--0--0--|


Verse: [this is played throughout most of the song]

G---------------------|
D--2-2-0-2------------|
A---------------------|
E------------0--0--0--|


Chorus: [its not made by great men]

G-------------------------------|
D-------------------------------|
A--5-5-3--5-3--5-3--5-3-3-3-----|
E-------------------------------|   [play 3 times]

and end the chorus on

G-------------------------------|
D-------------------------------|
A--5-5-3--5-3--5-3--5-6--7------|
E-------------------------------|

then go back to the verse

ill leave you to figure out the order
and thats 'not great men' by gang of four
            
Hard to play? Try these video lessons and learn fast. | Correct




comments powered by Disqus
↑ Back to top | Tablatures and chords are parodies/interpretations of the original songs. You may use it for private study, scholarship, research or language learning purposes only