» » »

Gandalf Murphy And The Slambovian Circus Of Dreams, Never Fit Tabs (ver.2)

Artists:  A B C D E F G H I J K L M N O P Q R S T U V W X Y Z # 

Never Fit Tabs (ver.2)

Gandalf Murphy And The Slambovian Circus Of Dreams Tabs
 Rating:
4/5 (4 votes)
Never Fit lessons Tabs too difficult? Try these video lessons and learn fast
                Song Title: Never Fit
Band: Gandalf Murphy and the Slambovian Circus of Dreams
Members: Joziah Longo, Tink Lloyd, Sharkey McEwen, Tony Zuzulo

This tab is the author’s own work and represents his / her 
interpretation of the song.  

Tuning: Standard (E A D G B E)



Intro / Verse / Chorus 
E|--------2-----------2----------------------------------------------||
B|-----------3-----------3------3-----------------3-------3----------||
G|-----2--------------------------2-----4--0--------4-------4--------||
D|--0-----------0----------------------------------------------------||
A|---------------------------0---------0-------2--------2------------||
E|-------------------------------------------------------------------||

Verse / Chorus continued:
E|---------------------------------------------------------------------||
B|-----2-------2-------3------3-------3-------3-------3------3----3----||
G|-------2-------2-------2------2-------2-------2-------2------2----2--||
D|---------------------------------------------------------------------||
A|--0-------0----------------------------------------------0-----0-----||
E|-------------------3------3-------2-------0------0-------------------||

Bridge:

"And all around we hear the sound..."              
E|-------------------------------------------------------------||
B|---3------3------2-----2-------2-----2------2-----2----------||
G|-----4------4------2-----2-------3-----3-----3-----3---------||
D|-------------------------------------------------------------||
A|-2------2------0------0--------------------------------------||
E|-----------------------------3-----3------2-----2------------||
                                                     ^ right here, repeat

then after you repeat play:
"I don't believe....yeah"

E|----------------------------------------------------||
B|----3-------3--------3------3-----3------3----------||
G|------2-------2--------2------2-----2------2--------||
D|----------------------------------------------------||
A|------------------0------0------0------0------------||
E|--0-------0-----------------------------------------||
            
Submit corrections

comments powered by Disqus
↑ Back to top | Gandalf Murphy And The Slambovian Circus Of Dreams Tabs for Never Fit. Lyrics for acoustic guitar and electric guitar. Tablatures and chords are parodies/interpretations of the original songs. You may use it for private study, scholarship, research or language learning purposes only