» » »

Gandalf Murphy And The Slambovian Circus Of Dreams, Never Fit Tabs (ver.1)

Artists:  A B C D E F G H I J K L M N O P Q R S T U V W X Y Z # 
Rating:
0/5 (0 votes)
Never Fit lessons Tabs too difficult? Try these video lessons and learn fast
                Gandalf Murphy and the Slambovian Circus of Dreams

This is a really great song

Sometimes all the notes in the brackets are played instead of the notes in the same
column, like at 3:30, but most of the time none at all are played, so you can just
ignore them

Chorus/Verse
  D                Asus             Bm                A
E|---------2------|----------------|----------------|-----------------|
B|-----3-----3---3|---------3------|---------3------|---------2-------|
G|---2---2-----2--|-----2-----2----|-----4-----4--(4|)----2-----2--(2)|
D|-0------------(0|)--2---2-----2--|---4---4-----4--|---2---2-----2---|
A|----------------|-0-------------0|-2-------------2|-0-------------0-|
E|----------------|----------------|----------------|-----------------|

   A                Gadd2 or D/G     D/F#             D/E
E|----------------|----------------|----------------|----------------|
B|---------2------|---------3------|--------3-------|--------3-------|
G|-----2-----2--(2|)----2-----2—-(2|)---2-----2—-(2||----2-----2-----|
D|---2---2-----2--|---0---0-----0--|--0---0-----0---|--0---0-----0---|
A|-0-------------0|----------------|----------------|--------------0-|
E|----------------|-3-------------3|-2------------2-|0---------------|


   A                D     
E|----------------|---------3------|
B|---------2------|-----3-----2----|
G|-----2-----2----|---2---2-----3--|  repeat
D|---2---2-----2-0|-0-------------0|
A|-0--------------|----------------|
E|----------------|----------------|

Bridge: repeat once, then go straight to riff 1                
      Bm              A                   D/G            D/F#
E|----------------|----------------|---------------|----------------|
B|-------3------3-|------2-------2-|------3--------|---------3------|
G|-----4------4---|----2-------2---|----2---2---2--|-----2-----2----|
D|---4------4-----|--2-------2-----|--0-------0---0|---0---0-----0--|
A|-2-------2------|0-------0-------|---------------|----------------|
E|----------------|----------------|3--------------|-2-------------2|

Bridge 2: Later in song, repeat once, then go to riff 1
      Bm              A                   D/G            D/F#
E|----------------|----------------|---------------|----------------|
B|---------3------|--------2-------|------3--------|---------3------|
G|-----4-----4---4|----2-----2---2-|----2---2---2--|-----2-----2----|
D|---4---4-----4--|--2---2-----2---|--0-------0---0|---0---0-----0--|
A|-2--------------|0---------------|---------------|----------------|
E|----------------|----------------|3--------------|-2-------------2|

Riff 1:
The rrrr’s just show a rest
    D/E
E|---r------------|---r------------|
B|---r-----3------|---r-----3------|
G|---r---2---2---2|---r---2---2---2|  
D|---r-0-------0--|---r-0-------0--|
A|---r------------|---r------------|
E|-0-r------------|-0-r------------|

That’s about it
            
Submit corrections

comments powered by Disqus
↑ Back to top | Gandalf Murphy And The Slambovian Circus Of Dreams Tabs for Never Fit. Lyrics for acoustic guitar and electric guitar. Tablatures and chords are parodies/interpretations of the original songs. You may use it for private study, scholarship, research or language learning purposes only