>
 >
Valley Of The Kings

Valley Of The Kings Guitar Tabs

Gamma Ray - Valley Of The Kings chords, tabs, tablatures, lyrics

Guitar lessons | Add/correct | Request | Top 50 tabs Artists:  A B C D E F G H I J K L M N O P Q R S T U V W X Y Z 0-9

Valley Of The Kings Guitar Tabs – Gamma Ray

CD, Sheet music, Poster

Do you like Valley Of The Kings? Share with your friends now
Bass TabsTabsTabs v2
Valley of the kings
  				-----------------------	
				     by Gamma Ray	






tune  down

|---b--------------------------------------------------------------------------------------|
|--13~-\-------13--b-----------------------------------------------------------------------|
|-----------------12-----------------------------------------------------------------------|
|----------------------------7-------3-------5----------------7-------3-------5------------|
|----------------------------5-------1-------3-------/8---7---5-------1-------3------------|
|------------------------------------------------------------------------------------------|



verse 1
riff
|------------------------------------------------------------------------------------------|
|------------------------------------------------------------------------------------------|
|------------------------------------------------------------------------------------------|
|------------------------------------------------------------------------------------------|
|---7---7-----------3---3-----------5---5-----------7---7-----------3---3-----------5---5--|
|---5---5-----------1---1---------x-3---3-----------5---5-----------1---1---------x-3---3--|



         		      P.m......................|
|------------------------------------------------------------------------------------------|
|------------------------------------------------------------------------------------------|
|------------------------------------------------------------------------------------------|
|---5--(5)----5---7---9--(9)---------------------------------------------------------------|
|---3--(3)----3---5---7--(7)-----7-8-5-7-3-5-2-3---2-----5--5------------------------------|
|------------------------------------------------5---3-5-3--3------------------------------|


chorus
  In the valley of the kings........
|------------------------------------------------------------------------------------------|
|------------------------------------------------------------------------------------------|
|------------------------------------------------------------------------------------------|
|--------------------------------------------------------------------------5---------------|
|------7----5----7--------7---9--10---3---5-----7--5--7----5----7----7--7--3---3---5-------|
|------5----3----5--------5---7---8---1---3-----5--3--5----3----5----5--5------1---3-------|


|------------------------------------------------------------------------------------------|
|------------------------------------------------------------------------------------------|
|------------------------------------------------------------------------------------------|
|---7----------3----------5----------7----------3----------5-------------------------------|
|---5----------1----------3----/8-7--5----------1----------3-------------------------------|
|------------------------------------------------------------------------------------------|



verse 2
chorus


2x
|------------------------------------------------------------------------------------------|
|------------------------------------------------------------------------------------------|
|------------------------------------------------------------------------------------------|
|------9-------9-------9---7-7-7-------9-------9---------9-8---7---------------------------|
|--7-7-7---7-7-7---7-7-7---5-5-5---7-7-7---7-7-7--7-9-10-----9---8-------------------------|
|------------------------------------------------------------------------------------------|



solo1 (Kai)
 
|------b-- b1-----------------b------b--------------------------------------------------|
|-----15---15---15~---15-17-18-17---17----17-p-13---------b--------------b-----------------|
|--------------------------------------------------12~---12-12-10-9--12-10-----------------|
|---------------------------------------------------------------------------12---10h12p10--|
|------------------------------------------------------------------------------------------|
|------------------------------------------------------------------------------------------|



|------------------------------------------------------------------------------------------|
|------------------------------------------------------------------------------------------|
|-------------------------------------------/10~-9~----------------------------------------|
|-------10-------------------------10----10------------------------------------------------|
|-12-10----12-10-8-10-8----8-10/12----12---------------------------------------------------|
|-----------------------10-----------------------------------------------------------------|



|------------------------------------------------------------------------------------------|
|-----------------5-6-5----------------------------------5-6-5-----------------------------|
|--2---2-4-5-4--2-------7-5-4-5-4h5p4-----2---2-4-5-4--2-------7-5-4-5-4h5p4---------------|
|----2--------------------------------5-----2--------------------------------5-------------|
|------------------------------------------------------------------------------------------|
|------------------------------------------------------------------------------------------|




 Guitar 1
|------------------------------------------------------------------------------------------|
|----------------7-8-7---------------------------------7-8-7-------------------------------|
|--4---4-6-7-6-4-------9-7-6-7-6h7p6-----4---4-6-7-6-4-------9-7-6-------------------------|
|----4-------------------------------7-----4-----------------------------------------------|
|------------------------------------------------------------------------------------------|
|------------------------------------------------------------------------------------------|
|											   |
|											   |
|											   |
|Guitar 2              b			            		     b            |
|-----------b------14-14-14-12----------------------------------b-------14-14-14-12------|
|12---12-14-14-14-12------------15-14-15-14h15p14----12----12-14-14-14-12-------------15-14|
|---11--------------------------------------------14----11---------------------------------|
|------------------------------------------------------------------------------------------|
|------------------------------------------------------------------------------------------|
|------------------------------------------------------------------------------------------|



solo2 (Kai)

    Bar     Bar                  Bar\               Bar\           Bar\          Bar\                           
|----b---------------12h15p12h15p12h15p12h15p12h15p12h15p12h15p12h15p12h15p12h15p12h15p12--|
|---/15------b-----------------------------------------------------------------------------|
|----------/14\----------------------------------------------------------------------------|
|------------------------------------------------------------------------------------------|
|------------------------------------------------------------------------------------------|
|------------------------------------------------------------------------------------------|



 					  b    b    b   1b
|------------------10--------------------14---16---18---19---------------------------------|
|--9-10-12-10-9-10----10-9h10p9------------------------------------------------------------|
|-------------------------------10-7~------------------------------------------------------|
|------------------------------------------------------------------------------------------|
|------------------------------------------------------------------------------------------|
|------------------------------------------------------------------------------------------|


	        
solo3 (Henjo)
		    a.h	
|-b-^r-^b--7--b----------------------------------------------------------------------------|
|10-10-10----10---12-10-------10---------11---b--r--------------b-------b----------------|
|-----------------------11-10----11-10\8-----10^10-8-10-8-------8--------10-10-8-10-8------|
|---------------------------------------------------------10-8----10-8-----------------10-8|
|----------------------------------------------------------------------10------------------|
|------------------------------------------------------------------------------------------|



|----------------------15h19p15h19p15--b---------------------------------------------------|
|----------------16-19----------------18~--------------------------------------------------|
|----------14-17---------------------------------------------------------------------------|
|----13-16---------------------------------------------------------------------------------|
|------------------------------------------------------------------------------------------|
|------------------------------------------------------------------------------------------|


2x
|---15--15--15-15--15--15-15-15-15-15-15-15--15--15-15--15--15--15-15-15-15-15-15----------|
|---13--13--13-13--13--13-13-13-13-13-13-13--13--13-13--13--13--13-13-13-13-13-13----------|
|------------------------------------------------------------------------------------------|
|------------------------------------------------------------------------------------------|
|------------------------------------------------------------------------------------------|
|------------------------------------------------------------------------------------------|


|------------------------------------------------------------------------------------------|
|------------------------------------------------------------------------------------------|
|------------------------------------------------------------------------------------------|
|---8--(8)------8----10----12---(12)-------------------------------------------------------|
|---6--(6)------6-----8----10---(10)-------------------------------------------------------|
|------------------------------------------------------------------------------------------|



chorus

end





Comments


Popular Gamma Ray tabs & chords
Abyss Of The Void 2 Bass Tabs
Land Of The Free Bass Tabs
Land Of The Free 2 Bass Tabs
Pray Bass Tabs
A While In Dreamland Tabs
Heaven Cant Wait Tabs
Short As Hell Tabs
Space Eater Tabs
Empress Ukulele
Watcher In The Sky Ukulele


Song lyrics



↑ Back to top | Tablatures and chords are parodies/interpretations of the original songs. You may use it for private study, scholarship, research or language learning purposes only
© 2014 AZChords.com Contact us | Privacy policy | DMCA | Add/correct tabs | Request tabs | Top 50 tabs