>
 >
Send Me A Sign

Send Me A Sign Guitar Tabs

Gamma Ray - Send Me A Sign chords, tabs, tablatures, lyrics

Guitar lessons | Add/correct | Request | Top 50 tabs Artists:  A B C D E F G H I J K L M N O P Q R S T U V W X Y Z 0-9

Send Me A Sign Guitar Tabs – Gamma Ray

CD, Sheet music, Poster

Do you like Send Me A Sign? Share with your friends now
Bass TabsChordsTabsUkulele
Transcribed  by Yves Vermeersch

E------------------------------------------------------------------------
B------------------------------------------------------------------------
G------------------------------------------------------------------------
D--9--5--7---------------9--5---------7-----7--9--5--7---------------9---
A--7--3--5------7-----7--7--3-5--5-5-5-5-5-5--7--3--5------7-----7--7---
E-----------5-5-5-5-5-5--------3------------------------5-5-5-5-5-5------

            Enter vocals       On a stotytellers night...               
E----------|-----------------|-------------------------|-----------------
B----------|-----------------|-------------------------|-----------------
G----------|----Bass Line----|-------------------------|-----------------
D--5-----7-|-----------------|--4--7--7--4--4--7--7--4-|-----------------
A--3--5--5-|-----------------|--2--5--7--2--2--5--7--4-|-----------------
E-----3----|-----------------|--------5-----------5--2-|-----------------

He had the gift of prophecy.....
E------------------------------------------------------------------------
B------------------------------------------------------------------------
G------------------------------------------------------------------------
D------------------------------------------------------------------------
A------------------5-5-5-5-5-5-5-5-----------------2-2-2-2-2-2-2-2-------
E--3-3-3-3-3-3-3-3-----------------5-5-5-5-5-5-5-5-----------------3-3-3-

E--------------------------------------------|---------------------------
B--------------------------------------------|---------------------------
G--------------------------------------------|---------------------------
D--------------------------------------------|---------------------------
A------------------------------------------7-|---------------------------
E--3-3-3-3-3-4-4-4-4-4-4-4-4-5-5-5-5-5-5-5-5-|---------------------------

Send me a sign...!
E------------------------------------------------------------------------
B------------------------------------------------------------------------
G------------------------------------------------------------------------
D--4------------9-----9--4-----7---------------9--5--7---------------9---
A--2--5--7--7-7-7-7-7-7--2--5--5------7-----7--7--3--5------7-----7--7---
E-----3--5------------------3-----5-5-5-5-5-5-----------5-5-5-5-5-5------

E----------|-------------------|-----------------------------------------
B----------|-------------------|-----------------------------------------
G----------|-----Bass Line-----|-----------------------------------------
D--5-----7-|-------------------|-----------------------------------------
A--3--5--5-|-------------------|-----------------------------------------
E-----3----|-------------------|-----------------------------------------





E-----------------------------|------------------------------------------
B-----------------------------|------------------------------------------
G-----------------------------|------------------------------------------
D--4--7--7--4--4--7--7------4-|------------------------------------------
A--2--5--7--2--2--5--7------4-|------------------5-5-5-5-5-5-5-5---------
E--------5-----------5--2-2-2-|--3-3-3-3-3-3-3-3-----------------5-5-5-5-

E------------------------------------------------------------------------
B------------------------------------------------------------------------
G------------------------------------------------------------------------
D------------------------------------------------------------------------
A----------2-2-2-2-2-2-2-2-----------------------------------------------
E--5-5-5-5-----------------3-3-3-3-3-3-3-3-4-4-4-4-4-4-4-4-4-5-5-5-5-5-5-

E------|-----------------------------------------------------------------
B------|-----------------------------------------------------------------
G------|-----------------------------------------------------------------
D------|--4------------9-----9--4-----7---------------9--5--7------------
A----7-|--2--5--7--7-7-7-7-7-7--2--5--5------7-----7--7--3--5-----7-----7
E--5-5-|-----3--5------------------3-----5-5-5-5-5-5----------5-5-5-5-5-5

E-----------------------------------------------------|----------------|-
B-----------------------------------------------------|----------------|-
G-----------------------------------------------------|----------------|-
D--9--5--------------------4-5--------------------6-7-|--Guitar Solos--|-
A--7--3-----------3--5--7-----------------5--7--9-----|----------------|-
E--------3--5--7-----------------5--7--9--------------|----------------|-

E------------------------------------------------------------------------
B------------------------------------------------------------------------
G------------------------------------------------------------------------
D------------------------------------------------------------------------
A------------------5-5-5-5-5-5-5-5-----------------2-2-2-2-2-2-2-2-------
E--3-3-3-3-3-3-3-3-----------------5-5-5-5-5-5-5-5-----------------3-3-3-

E--------------------------------------------|-------------------------|-
B--------------------------------------------|-------------------------|-
G--------------------------------------------|-------------------------|-
D--------------------------------------------|--4--------9--4-----7----|-
A------------------------------------------7-|--2--5--7--7--2--5--5--7-|-
E--3-3-3-3-3-4-4-4-4-4-4-4-4-5-5-5-5-5-5-5-5-|-----3--5--------3-----5-|-

E------------------------------------------------------------------------
B------------------------------------------------------------------------
G------------------------------------------------------------------------
D--4------------9-----9--4-----7---------------9--5--7---------------9---
A--2--5--7--7-7-7-7-7-7--2--5--5------7-----7--7--3--5------7-----7--7---
E-----3--5------------------3-----5-5-5-5-5-5-----------5-5-5-5-5-5------

E------------------------------------------------------------------------
B------------------------------------------------------------------------
G------------------------------------------------------------------------
D--5-----7--9--5--7---------------9--5--------------4-5-------------6-7--
A--3--5--5--7--3--5------7-----7--7--3--------3-5-7-----------5-7-9------
E-----3--------------5-5-5-5-5-5--------3-5-7-----------5-7-9------------


E-----------------------||
B-----------------------||
G----------------------4||
D--4--4--4--4--2--4----4||
A--2--2--2--2--0--2----2||
E-----------------------||





Comments


Popular Gamma Ray tabs & chords
Abyss Of The Void 2 Bass Tabs
Land Of The Free 2 Bass Tabs
Pray Bass Tabs
The Winged Horse Bass Tabs
Watcher In The Sky Bass Tabs
Land Of The Free Drum Tabs
Guardians Of Mankind Tabs
Spaceeater Tabs
To Mother Earth Intro Tabs
Farewell Ukulele


Song lyrics



↑ Back to top | Tablatures and chords are parodies/interpretations of the original songs. You may use it for private study, scholarship, research or language learning purposes only
© 2014 AZChords.com Contact us | Privacy policy | DMCA | Add/correct tabs | Request tabs | Top 50 tabs