» » »

Gamma Ray, Send Me A Sign Tabs (ver.1)

Artists:  A B C D E F G H I J K L M N O P Q R S T U V W X Y Z # 

Send Me A Sign Tabs (ver.1)

Gamma Ray Tabs
Rating:
0/5 (0 votes)
Send Me A Sign lessons Tabs too difficult? Try these video lessons and learn fast
                Transcribed  by Yves Vermeersch

E------------------------------------------------------------------------
B------------------------------------------------------------------------
G------------------------------------------------------------------------
D--9--5--7---------------9--5---------7-----7--9--5--7---------------9---
A--7--3--5------7-----7--7--3—-5--5-5-5-5-5-5--7--3--5------7-----7--7---
E-----------5-5-5-5-5-5--------3------------------------5-5-5-5-5-5------

            Enter vocals       On a stotytellers night...               
E----------|-----------------|-------------------------|-----------------
B----------|-----------------|-------------------------|-----------------
G----------|----Bass Line----|-------------------------|-----------------
D--5-----7-|-----------------|--4--7--7--4--4--7--7--4-|-----------------
A--3--5--5-|-----------------|--2--5--7--2--2--5--7--4-|-----------------
E-----3----|-----------------|--------5-----------5--2-|-----------------

He had the gift of prophecy.....
E------------------------------------------------------------------------
B------------------------------------------------------------------------
G------------------------------------------------------------------------
D------------------------------------------------------------------------
A------------------5-5-5-5-5-5-5-5-----------------2-2-2-2-2-2-2-2-------
E--3-3-3-3-3-3-3-3-----------------5-5-5-5-5-5-5-5-----------------3-3-3-

E--------------------------------------------|---------------------------
B--------------------------------------------|---------------------------
G--------------------------------------------|---------------------------
D--------------------------------------------|---------------------------
A------------------------------------------7-|---------------------------
E--3-3-3-3-3-4-4-4-4-4-4-4-4-5-5-5-5-5-5-5-5-|---------------------------

Send me a sign...!
E------------------------------------------------------------------------
B------------------------------------------------------------------------
G------------------------------------------------------------------------
D--4------------9-----9--4-----7---------------9--5--7---------------9---
A--2--5--7--7-7-7-7-7-7--2--5--5------7-----7--7--3--5------7-----7--7---
E-----3--5------------------3-----5-5-5-5-5-5-----------5-5-5-5-5-5------

E----------|-------------------|-----------------------------------------
B----------|-------------------|-----------------------------------------
G----------|-----Bass Line-----|-----------------------------------------
D--5-----7-|-------------------|-----------------------------------------
A--3--5--5-|-------------------|-----------------------------------------
E-----3----|-------------------|-----------------------------------------





E-----------------------------|------------------------------------------
B-----------------------------|------------------------------------------
G-----------------------------|------------------------------------------
D--4--7--7--4--4--7--7------4-|------------------------------------------
A--2--5--7--2--2--5--7------4-|------------------5-5-5-5-5-5-5-5---------
E--------5-----------5--2-2-2-|--3-3-3-3-3-3-3-3-----------------5-5-5-5-

E------------------------------------------------------------------------
B------------------------------------------------------------------------
G------------------------------------------------------------------------
D------------------------------------------------------------------------
A----------2-2-2-2-2-2-2-2-----------------------------------------------
E--5-5-5-5-----------------3-3-3-3-3-3-3-3-4-4-4-4-4-4-4-4-4-5-5-5-5-5-5-

E------|-----------------------------------------------------------------
B------|-----------------------------------------------------------------
G------|-----------------------------------------------------------------
D------|--4------------9-----9--4-----7---------------9--5--7------------
A----7-|--2--5--7--7-7-7-7-7-7--2--5--5------7-----7--7--3--5-----7-----7
E--5-5-|-----3--5------------------3-----5-5-5-5-5-5----------5-5-5-5-5-5

E-----------------------------------------------------|----------------|-
B-----------------------------------------------------|----------------|-
G-----------------------------------------------------|----------------|-
D--9--5--------------------4-5--------------------6-7-|--Guitar Solos--|-
A--7--3-----------3--5--7-----------------5--7--9-----|----------------|-
E--------3--5--7-----------------5--7--9--------------|----------------|-

E------------------------------------------------------------------------
B------------------------------------------------------------------------
G------------------------------------------------------------------------
D------------------------------------------------------------------------
A------------------5-5-5-5-5-5-5-5-----------------2-2-2-2-2-2-2-2-------
E--3-3-3-3-3-3-3-3-----------------5-5-5-5-5-5-5-5-----------------3-3-3-

E--------------------------------------------|-------------------------|-
B--------------------------------------------|-------------------------|-
G--------------------------------------------|-------------------------|-
D--------------------------------------------|--4--------9--4-----7----|-
A------------------------------------------7-|--2--5--7--7--2--5--5--7-|-
E--3-3-3-3-3-4-4-4-4-4-4-4-4-5-5-5-5-5-5-5-5-|-----3--5--------3-----5-|-

E------------------------------------------------------------------------
B------------------------------------------------------------------------
G------------------------------------------------------------------------
D--4------------9-----9--4-----7---------------9--5--7---------------9---
A--2--5--7--7-7-7-7-7-7--2--5--5------7-----7--7--3--5------7-----7--7---
E-----3--5------------------3-----5-5-5-5-5-5-----------5-5-5-5-5-5------

E------------------------------------------------------------------------
B------------------------------------------------------------------------
G------------------------------------------------------------------------
D--5-----7--9--5--7---------------9--5--------------4-5-------------6-7--
A--3--5--5--7--3--5------7-----7--7--3--------3-5-7-----------5-7-9------
E-----3--------------5-5-5-5-5-5--------3-5-7-----------5-7-9------------


E-----------------------||
B-----------------------||
G----------------------4||
D--4--4--4--4--2--4----4||
A--2--2--2--2--0--2----2||
E-----------------------||
            

comments powered by Disqus
↑ Back to top | Gamma Ray Tabs for Send Me A Sign. Lyrics for acoustic guitar and electric guitar. Tablatures and chords are parodies/interpretations of the original songs. You may use it for private study, scholarship, research or language learning purposes only