>
 >
Hammer Slammer

Hammer Slammer Guitar Tabs

Gama Bomb - Hammer Slammer chords, tabs, tablatures, lyrics

Guitar lessons | Add/correct | Request | Top 50 tabs Artists:  A B C D E F G H I J K L M N O P Q R S T U V W X Y Z 0-9

Hammer Slammer Guitar Tabs – Gama Bomb

CD, Sheet music, Poster

Do you like Hammer Slammer? Share with your friends now
TabsTabs v2
-------------------------------------------------------------------------------
                             HAMMER SLAMMER  Gama Bomb
-------------------------------------------------------------------------------

Tuning: Standard (eBGDAE)


Timing may be a bit off (listen to the song for that) and I think there are a 
couple of fills missing but the rest is pretty much note perfect as I copied it 

Hence I don't take credit personally for this tab, I simply transcribed it.


Intro
e|----------------------------------------------------------------------------|
B|----------------------------------------------------------------------------|
G|----------------------------------------------------------------------------|
D|-10--9/7/9--10/9--------------------10--9/7/9--10/9-------------------------|
A|--8--7/5/7---8/7---------------------8--7-5-7---8-7-------------------------|
E|------------------0000000000000000-------------------6666666666666666-------|x4
PM                  ................                   ................
 
e|--------------------------------------------------------|
B|--------------------------------------------------------|
G|--------------------------------------------------------|
D|-10--9/7/9--10/9------------------------------------2~--|
A|--8--7/5/7---8/7--7-6-5-0-6-5-4-0-5-4-3-0-5-4-3-0---0~--|
E|--------------------------------------------------------|
PM                   ...............................                

e|-------------------------------------------------------------------------------|
B|-------------------------------------------------------------------------------|
G|-------------------------------------------------------------------------------|
D|-2----------------3p2p0-----------------2----------------3p2p0-------------5h7-|
A|-0-00000000000000------000-3p2p0-000----0-00000000000000------000-3p2p0-000----|
E|------------------------------------3h5----------------------------------------|
PM    .............      ...       ...      ..............      ...       ...

e|-------------------------------------------------------------------------------|
B|-------------------------------------------------------------------------------|
G|-------------------------------------------------------------------------------|
D|-2----------------3p2p0-----------------2-----------------5555555555555555-----|
A|-0-00000000000000------000-3p2p0-000----0-00000000000000-----------------------|
E|------------------------------------3h5----------------------------------------|
PM    .............      ...       ...      ..............  \______PH______/

Verse
e|------------------------------------------------------------------------------|
B|------------------------------------------------------------------------------|
G|------------------------------------------------------------------------------|
D|-2------------------2------2------------2-------------------------------------|
A|-0-00000000000000---0-0000-0-0000-2h3---0-00000000000000---3------3-----------|
E|-----------------------------------------------------------1-1111-1-1111-1h3--|x2
PM   ..............     ....   ....         ..............     ....   ....

Chorus
e|---------------------------------------------------------------------------|
B|---------------------------------------------------------------------------|
G|-9-9--9-9-9--9-------------------------------------------------------------|
D|-9-9--9-9-9--9----------------------5-5--5-5-5--5---8--8--8--8-------------|
A|-7-7--7-7-7--7----------------------5-5--5-5-5--5---8--8--8--8-------------|
E|-----------------6-66666666666666---3-3--3-3-3--3---6--6--6--6-------------|x2
PM                   ..............

Verse
e|------------------------------------------------------------------------------|
B|------------------------------------------------------------------------------|
G|------------------------------------------------------------------------------|
D|-2------------------2------2------------2-------------------------------------|
A|-0-00000000000000---0-0000-0-0000-2h3---0-00000000000000---3------3-----------|
E|-----------------------------------------------------------1-1111-1-1111-1h3--|x2
PM   ..............     ....   ....         ..............     ....   ....

Chorus
e|---------------------------------------------------------------------------|
B|---------------------------------------------------------------------------|
G|-9-9--9-9-9--9-------------------------------------------------------------|
D|-9-9--9-9-9--9----------------------5-5--5-5-5--5---8--8--8--8-------------|
A|-7-7--7-7-7--7----------------------5-5--5-5-5--5---8--8--8--8-------------|
E|-----------------6-66666666666666---3-3--3-3-3--3---6--6--6--6-------------|x2
PM                   ..............

Bridge
e|---------------------------------------------------------------------------|
B|---------------------------------------------------------------------------|
G|---------------------------------------------------------------------------|
D|---------------------------------------------------------------------------|
A|-------------3-6-------------6-3-------------3-6-------------7/8-----------|
E|-0-0-0-0-6-5-----0-0-0-0-6-5-----0-0-0-0-6-5-----0-0-0-0-0-0-5/6-----------|x8
PM ...........................................................

e|----------------------------------------------------------------------------|
B|----------------------------------------------------------------------------|
G|----------------------------------------------------------------------------|
D|----------------------------------------------------------------------------|
A|-------8\7---5/7--------8\7---5/7-------8\7---5/7----------------5/7--------|
E|-00000-6\5-0-3/5--00000-6\5-0-3/500000-6\5-0-3/50000-6000-5000-3/5--------|x4       
PM .....           .    .....    .     .....     .     ....

Solo
e|---------------------------------------------------------------------------|
B|----6b---6h7p6-------------------------------------------------------------|
G|----8b----------8b--8b---11-10-8------------------10~--\8~--\6~--\5~-------|
D|---------------------------------11-10-8h10p8------------------------------|
A|----------------------------------------------9~---------------------------|
E|---------------------------------------------------------------------------|

e|---------------------------------------------6h9/14p9----------------------|
B|-------------------------------------------7----------11-------------------|
G|--11p8h10h11p10h8------------------------6---------------11----------------|
D|-------------------11p8h10h11p10h8-----8--------------------11--------15^--|
A|-------------------------------------9-------------------------13/15-------|
E|---------------------------------------------------------------------------|

e|--8h10p8----8---------8h11p8----8--------8h11p8----8---------8h11p8-----------|
B|--------11---11p8h11--------11---11p8-----------11---11p8-----------11p8h11p8-|
G|--------------------------------------11------------------11------------------|
D|------------------------------------------------------------------------------|
A|------------------------------------------------------------------------------|
E|------------------------------------------------------------------------------|

e|-8------------8------------8--------------8h10h11h14-15-14p11p10p8-----------------|
B|-------------------------------------11^---------------------------11p10p8---------|
G|---11p10p8h11---11p10p8h11---11p10p8---------------------------------------11p10p8-|
D|-----------------------------------------------------------------------------------|
A|-----------------------------------------------------------------------------------|
E|-----------------------------------------------------------------------------------|

e|--11p10p8h1011p10p8-------------------------------------------------------|
B|---------------------11p10p8--------11p10p8-----------------------14-17^---|
G|-----------------------------10p8p7---------10p8p7-------------14----------|
D|---------------------------------------------------10p8p7--/16-------------|
A|---------------------------------------------------------------------------|
E|---------------------------------------------------------------------------|

Verse
e|------------------------------------------------------------------------------|
B|------------------------------------------------------------------------------|
G|------------------------------------------------------------------------------|
D|-2------------------2------2------------2-------------------------------------|
A|-0-00000000000000---0-0000-0-0000-2h3---0-00000000000000---3------3-----------|
E|-----------------------------------------------------------1-1111-1-1111-1h3--|x2
PM   ..............     ....   ....         ..............     ....   ....

Chorus
e|---------------------------------------------------------------------------|
B|---------------------------------------------------------------------------|
G|-9-9--9-9-9--9-------------------------------------------------------------|
D|-9-9--9-9-9--9----------------------5-5--5-5-5--5---8--8--8--8--Let ring---|
A|-7-7--7-7-7--7----------------------5-5--5-5-5--5---8--8--8--8--final time-|
E|-----------------6-66666666666666---3-3--3-3-3--3---6--6--6--6-------------|x4
PM                   ..............


Feel free to submit corrections, and enjoy! \m/


| /  slide up
| \  slide down
| h  hammer-on
| p  pull-off
| ~  vibrato
| +  harmonic
| x  Mute note
| PM Palm Mute
| PH Pinch Harmonic
===============================================================================





Comments


Popular Gama Bomb tabs & chords
Evil Voices Bass Tabs
Terrorscope Bass Tabs
Bullet Belt Intro Tabs
Final Fight Tabs
Global Warning Tabs
Hammer Slammer 1 Tabs
Hell Trucker Tabs
Sentenced To Thrash Tabs
Time Crime Tabs
Zombie Blood Nightmare Tabs


Song lyrics



↑ Back to top | Tablatures and chords are parodies/interpretations of the original songs. You may use it for private study, scholarship, research or language learning purposes only
© 2014 AZChords.com Contact us | Privacy policy | DMCA | Add/correct tabs | Request tabs | Top 50 tabs