» » »

Gama Bomb, Hammer Slammer Tabs (ver.2)

Artists:  A B C D E F G H I J K L M N O P Q R S T U V W X Y Z # 

Hammer Slammer Tabs (ver.2)

Gama Bomb Tabs
Rating:
0/5 (0 votes)
Hammer Slammer lessons Tabs too difficult? Try these video lessons and learn fast
                Gama Bomb - Hammer Slammer



Riff 1
e|-----------------------------------|
B|-----------------------------------|
G|-----------------------------------|
D|-10--9\7---9/10\9------------------|
A|-8---7\5---7/8-\7------------------|
E|------------------0000000000000000-|
                    ****************

e|-----------------------------------|
B|-----------------------------------|
G|-----------------------------------|
D|-10--9\7---9/10\9------------------|
A|-8---7\5---7/8-\7------------------|
E|------------------6666666666666666-|
                    ****************

Riff 2
e|------------------|
B|------------------|
G|------------------|
D|-10--9\7---9/10\9-|
A|-8---7\5---7/8-\7-|
E|------------------|

e|--------------------------------------------------|
B|--------------------------------------------------|
G|---------------------------------2----------------|
D|---------------------------------2----------------|
A|-7-6-5-0-6-5-4-0-5-4-3-0-4-3-2-0-0----------------|
E|--------------------------------------------------|
   * * * * * * * * * * * * * * * *

Riff 3
e|---------------------------------------|
B|---------------------------------------|
G|---------------------------------------|
D|-2---------------3p2p0-----------------|
A|-0-00000000000000------00-3p2p0-00-----|
E|-----------------------------------3h5-|
     **************      **       **

e|---------------------------------------|
B|---------------------------------------|
G|---------------------------------------|
D|-2---------------3p2p0-------------5h7-|
A|-0-00000000000000------00-3p2p0-00-----|
E|---------------------------------------|
     **************      **       **

e|---------------------------------------|
B|---------------------------------------|
G|---------------------------------------|
D|-2---------------3p2p0-----------------|
A|-0-00000000000000------00-3p2p0-00-----|
E|-----------------------------------3h5-|
     **************      **       **

e|----------------------------------|
B|----------------Natural Harmonics-|
G|-----------------5555555555555555-| 
D|-2--------------------------------|
A|-0-00000000000000-----------------|
E|----------------------------------|
     **************

Riff 4
e|-----------------------------------|
B|-----------------------------------|
G|-----------------------------------|
D|-2----------------2-----2------4/5-|
A|-0-00000000000000-0-00000-0000-2/3-|
E|-----------------------------------|
     **************   ****  ****

e|-----------------------------------|
B|-----------------------------------|
G|-----------------------------------|
D|-2---------------------------------|
A|-0-00000000000000-3-----3------3/5-|
E|------------------1-11111-1111-1/3-|
     **************   ****  ****

Riff 5
e|----------------------------------|
B|----------------------------------|
G|-9-9-----9-9-9--------------------|
D|-9-9-----9-9-9--------------------|
A|-7-7-----7-7-7---8----------------|
E|-----------------6-66666666666666-|
                     **************

e|----------------------------------|
B|----------------------------------|
G|-----------------3-3-----3-3-3----|
D|-5-5-----5-5-5---3-3-----3-3-3----|
A|-5-5-----5-5-5---1-1-----1-1-1----|
E|-3-3-----3-3-3--------------------|

Riff 6
e|---------------------------------|
B|---------------------------------|
G|---------------------------------|
D|---------------------------------|
A|---------------6-------------6---|
E|-0-0-0-0-6-5-8---0-0-0-0-6-5---8-|
   * * * * * * * * * * * * * * * *

e|----------------------------------|
B|----------------------------------|
G|----------------------------------|
D|----------------------------------|
A|---------------6--------------7/8-|
E|-0-0-0-0-6-5-8---000000000000-5/6-|
   * * * * * * * * ************

Riff 7
e|---------------------------------------|
B|---------------------------------------|
G|---------------------------------------|
D|---------------------------------------|
A|----------8\7---5/7----------8\7---5/7-|
E|-00000000-6\5-0-3/5-00000000-6\5-0-3/5-|
   ********     *     ********     *
 
e|---------------------------------------|
B|---------------------------------------|
G|---------------------------------------|
D|---------------------------------------|
A|----------8\7---5/7--------------5/7---|
E|-00000000-6\5-0-3/5-000060005000-3/5---|
   ********     *     ************

Riff 8
e|-----------------------------------|
B|-----------------------------------|
G|-----------------------------------|
D|-3----------------3-----3----------|
A|-1-33333333333333-1-11111-1111-4-5-|
E|-----------------------------------|
     **************   ****  **** * *

e|-----------------------------------|
B|-----------------------------------|
G|-----------------------------------|
D|-3---------------------------------|
A|-1-33333333333333-4-----4------4/5-|
E|------------------2-22222-2222-2/3-|
     **************   ****  ****

Riff 9
e|-----------------------------------|
B|-----------------------------------|
G|-----------------------------------|
D|-5----------------5-----5----------|
A|-3-33333333333333-3-33333-3333-5-6-|
E|-----------------------------------|
     **************   ****  **** * *

e|-----------------------------------|
B|-----------------------------------|
G|-----------------------------------|
D|-5---------------------------------|
A|-3-33333333333333-4-----4------4/5-|
E|------------------2-22222-2222-2/3-|
     **************   ****  ****

Riff 10
e|----------------------------------|
B|----------------------------------|
G|-9-9-----9-9-9--------------------|
D|-9-9-----9-9-9--------------------|
A|-7-7-----7-7-7---8----------------|
E|-----------------6-66666666666666-|
                     **************

e|--------------------------------------|
B|--------------------------------------|
G|-----------------3---3---3---3--------|
D|-5-5-----5-5-5---3---3---3---3--------|
A|-5-5-----5-5-5---1---1---1---1--------|
E|-3-3-----3-3-3------------------------|


e|--------------------------------------|
B|--------------------------------------|
G|--------------------------------------|
D|--------------------------------------|
A|-2------------------------------------|
E|-0------------------------------------|


Song Structure
Riff 1  (4 Times) 
Riff 2  
Riff 3
Riff 4  (2 Times)
Riff 5  (2 Times)
Riff 4  (2 Times)
Riff 5  (2 Times)
Riff 6  (8 Times)
Riff 7  (4 Times)
Riff 8  (2 Times)
Riff 9  (2 Times)
Riff 4  (2 Times)
Riff 5  (3 Times)
Riff 10
            

comments powered by Disqus
↑ Back to top | Gama Bomb Tabs for Hammer Slammer. Lyrics for acoustic guitar and electric guitar. Tablatures and chords are parodies/interpretations of the original songs. You may use it for private study, scholarship, research or language learning purposes only