>
 >
The Vulture Act 2

The Vulture Act 2 Guitar Tabs

Gallows - The Vulture Act 2 chords, tabs, tablatures, lyrics

Guitar lessons | Add/correct | Request | Top 50 tabs Artists:  A B C D E F G H I J K L M N O P Q R S T U V W X Y Z 0-9

The Vulture Act 2 Guitar Tabs – Gallows

CD, Sheet music, Poster

Do you like The Vulture Act 2? Share with your friends now
TabsTabs v2


Tuning: Drop D

I will be posting a ‘The Vulture (Acts I & II)’ when I figure out the correct chords for Act I 
because the tab already on here doesn’t sound right to me. Enjoy :D

 
  Intro - 2:15 – Guitar 1
e|--------------------------------|
B|--------------------------------|
G|--6~----------7~----------[x6]--|
D|--6~----------7~----------------|
A|--4~----------5~----------------|
D|--------------------------------|

  2:56 – Guitar 1
e|---------------------|
B|---------------------|
G|--7--5--10--8--[x4]--|
D|--7--5--10--8--------|
A|--5--3--8---6--------|
D|---------------------|

  3:02 – Guitar 2
e|------------------------------------------------------------------------------------------|
B|------------------------------------------------------------------------------------------|
G|--7777-9999-10101010-9999-10101010-12121212-10101010-12121212-14141414-12121212-14141414--|
D|------------------------------------------------------------------------------------------|
A|--5555-7777-8-8-8-8--7777-8-8-8-8--10101010-8-8-8-8--10101010-12121212-10101010-12121212--|
D|------------------------------------------------------------------------------------------|

e|--------------------------------------------|
B|--------------------------------------------|
G|--15151515-14141414-12121212-10101010-9999--|
D|--------------------------------------------|
A|--13131313-12121212-10101010-8-8-8-8--7777--|
D|--------------------------------------------|


  Verse – 3:07 – Guitar 1
e|--------------------------------|
B|--------------------------------|
G|--7--[x32]--5--[x16]--4--[x16]--|
D|--7---------5---------4---------|
A|--5---------3---------2---------|
D|--------------------------------|

  3:07 – Guitar 2
e|--------------------------------------------------------------------|
B|--------------------------------------------------------------------|
G|----------------------[x2]------------------------------------------|
D|--8887778887~------6--------6665556665~------4--5554445554~------3--|
A|--5555555555~----8----------3333333333~----6----2222222222~----5----|
D|--------------------------------------------------------------------|


  Pre-Chorus - 3:31 – Both Guitars
e|------------------------------------|
B|------------------------------------|
G|------------------------------------|
D|--8-7---7-5---5-4---10-8---8-7------|
A|--6-5---5-3---3-2---8--6---6-5------|
D|------0-----0-----0------0-----0-0--|
        .     .     .      .     . .


  Chorus - 3:42 – Guitar 1
e|---------------------------------------------------|
B|---------------------------------------------------|
G|--7--[x16]--6--[x16]--3--[x16]--2--[x12]--6--[x4]--|
D|--7---------6---------3---------2---------6--------|
A|--5---------4---------1---------0---------4--------|
D|---------------------------------------------------|

  3:42 – Guitar 2
e|-----------------------------------------------------------|
B|-----------------------------------------------------------|
G|--1414-1515-1717-1515-141514-1414-1515-1717-1515-12121212--|
D|-----------------------------------------------------------|
A|--1212-1313-1515-1313-121312-1212-1313-1515-1313-10101010--|
D|-----------------------------------------------------------|

e|---------------------------------------------------|
B|---------------------------------------------------|
G|-77-99-1010-1212-141514-1414-1515-1818-1515-14-12--|
D|---------------------------------------------------|
A|-55-77-8-8--1010-121312-1212-1313-1616-1313-12-10--|
D|---------------------------------------------------|

  4:05 – Both Guitars
e|----------------------------|
B|----------------------------|
G|----------------------------|
D|--7-----5-----10-----8------|
A|--5-----3-----8------6------|
D|----000---000----000---000--|
      ...   ...    ...   ...

  4:10 – Guitar 2
e|------------------------------------------------------------------------------------------|
B|------------------------------------------------------------------------------------------|
G|--7777-9999-10101010-9999-10101010-12121212-10101010-12121212-14141414-12121212-14141414--|
D|------------------------------------------------------------------------------------------|
A|--5555-7777-8-8-8-8--7777-8-8-8-8--10101010-8-8-8-8--10101010-12121212-10101010-12121212--|
D|------------------------------------------------------------------------------------------|

e|--------------------------------------------|
B|--------------------------------------------|
G|--15151515-14141414-12121212-10101010-9999--|
D|--------------------------------------------|
A|--13131313-12121212-10101010-8-8-8-8--7777--|
D|--------------------------------------------|


[PLAY VERSE TO CHORUS]


  Outro – 5:13 – Guitar 1
e|----------------------------|
B|----------------------------|
G|----------------------------|
D|--7-----5-----10-----8------|
A|--5-----3-----8------6------|
D|----000---000----000---000--|
      ...   ...    ...   ...

  5:18 – Guitar 2
e|----------------------------|
B|----------------------------|
G|----------------------------|
D|--7-----5-----10-----8------|
A|--5-----3-----8------6------|
D|----000---000----000---000--|
      ...   ...    ...   ...

  5:27
e|------------------------------------------------------------------------------------------|
B|------------------------------------------------------------------------------------------|
G|--7777-9999-10101010-9999-10101010-12121212-10101010-12121212-14141414-12121212-14141414--|
D|------------------------------------------------------------------------------------------|
A|--5555-7777-8-8-8-8--7777-8-8-8-8--10101010-8-8-8-8--10101010-12121212-10101010-12121212--|
D|------------------------------------------------------------------------------------------|

e|--------------------------------------------|
B|--------------------------------------------|
G|--15151515-14141414-12121212-10101010-9999--|
D|--------------------------------------------|
A|--13131313-12121212-10101010-8-8-8-8--7777--|
D|--------------------------------------------|

  5:33 – Both Guitars
e|--------------------------------|
B|--------------------------------|
G|--7~----------8~----------[x2]--|
D|--7~----------8~----------------|
A|--5~----------6~----------------|
D|--------------------------------|


  THIS IS THE END!!!





Comments


Popular Gallows tabs & chords
I Dread The Night Bass Tabs
In The Belly Of A Shark Bass Tabs
Misery Bass Tabs
Staring At The Rude Bois 3 Bass Tabs
Will Someone Shoot That Fucking Snake Bass Tabs
Will Someone Shoot That Fucking Snake 2 Bass Tabs
Rolling With The Punches Intro Tabs
Rolling With The PunchesIntro Tabs
Staring At The Rude Bois 1 Tabs
The Vulture Act 2 1 Tabs


Song lyrics



↑ Back to top | Tablatures and chords are parodies/interpretations of the original songs. You may use it for private study, scholarship, research or language learning purposes only
© 2014 AZChords.com Contact us | Privacy policy | DMCA | Add/correct tabs | Request tabs | Top 50 tabs