>
 >
The Vulture Act 2 1

The Vulture Act 2 1 Guitar Tabs

Gallows - The Vulture Act 2 1 chords, tabs, tablatures, lyrics

Guitar lessons | Add/correct | Request | Top 50 tabs Artists:  A B C D E F G H I J K L M N O P Q R S T U V W X Y Z 0-9

The Vulture Act 2 1 Guitar Tabs – Gallows

CD, Sheet music, Poster

Do you like The Vulture Act 2 1? Share with your friends now
TabsTabs v2
have found any mistakes.
BTW.. Gallows are awesome!

INTRO-
      W                   W                   W                 
E||--------------------|-------------------|-------------------|
B||--------------------|-------------------|-------------------|
G||*--7----------------|--L----------------|--6----------------|
D||*--7----------------|--L----------------|--6----------------|
A||---5----------------|--L----------------|--4----------------|
D||--------------------|-------------------|-------------------|

                        
  W                 6x  H        H            H        H         
--------------------||--------------------|---------------------|
--------------------||--------------------|---------------------|
--L----------------*||--7--------5--------|--10--------8--------|
--L----------------*||--7--------5--------|--10--------8--------|
--L-----------------||--5--------3--------|---8--------6--------|
--------------------||--------------------|---------------------|


                                             TP   TP    TP   TP    
  H        H            H        H           Q    Q     Q    Q     
--------------------|---------------------|-----------------------|
--------------------|---------------------|-----------------------|
--7--------5--------|--10--------8--------|--7----9----10----9----|
--7--------5--------|--10--------8--------|--7----9----10----9----|
--5--------3--------|---8--------6--------|--5----7-----8----7----|
--------------------|---------------------|-----------------------|


   TP    TP    TP    TP       TP    TP    TP    TP       TP    TP    TP   TP    
   Q     Q     Q     Q        Q     Q     Q     Q        Q     Q     Q    Q     
--------------------------|--------------------------|-------------------------|
--------------------------|--------------------------|-------------------------|
--10----12----10----12----|--14----12----14----15----|--14----12----10----9----|
--10----12----10----12----|--14----12----14----15----|--14----12----10----9----|
---8----10-----8----10----|--12----10----12----13----|--12----10-----8----7----|
--------------------------|--------------------------|-------------------------|

Chorus
    E  E  E  E  E  E  E  E     E  E  E  E  E  E  Q     
|---------------------------|-------------------------|
|---------------------------|-------------------------|
|*--------------------------|-------------------------|
|*--8--8--8--7--7--7--8--8--|--8--7--7--7--7-----7----|
|---5--5--5--5--5--5--5--5--|--5--5--5--5--5--8-------|
|---------------------------|-------------------------|


  E  E  E  E  E  E  E  E     E  E  E  E  E  E  Q       E  E  E  E  E  E  E  E   
--------------------------|-------------------------|--------------------------|
--------------------------|-------------------------|--------------------------|
--------------------------|-------------------------|--------------------------|
--8--8--8--7--7--7--8--8--|--8--7--7--7--7-----7----|--6--6--6--5--5--5--6--6--|
--5--5--5--5--5--5--5--5--|--5--5--5--5--5--8-------|--3--3--3--3--3--3--3--3--|
--------------------------|-------------------------|--------------------------|


  E  E  E  E  E  E  Q       E  E  E  E  E  E  E  E   
-------------------------|--------------------------|
-------------------------|--------------------------|
-------------------------|--------------------------|
--6--5--5--5--5-----5----|--5--5--5--3--3--3--5--5--|
--3--3--3--3--3--6-------|--2--2--2--2--2--2--2--2--|
-------------------------|--------------------------|

                             Verse
                                    PM       PM        
  E  E  E  E  E  E  Q         E  E  E  E  E  E  E  E   
--------------------------||--------------------------|
--------------------------||--------------------------|
-------------------------*||--------------------------|
--5--3--3--3--3-----3----*||--8--7-----7--5-----5--4--|
--2--2--2--2--2--5--------||--6--5-----5--3-----3--2--|
--------------------------||--------0--------0--------|


  PM        PM       PM PM          PM       PM        
  E   E  E  E  E  E  E  E     E  E  E  E  E  E  E  E   
---------------------------|--------------------------|
---------------------------|--------------------------|
---------------------------|--------------------------|
-----10--8-----8--7--------|--8--7-----7--5-----5--4--|
------8--6-----6--5--------|--6--5-----5--3-----3--2--|
--0---------0--------0--0--|--------0--------0--------|


  PM        PM       PM PM          PM       PM        
  E   E  E  E  E  E  E  E     E  E  E  E  E  E  E  E   
---------------------------|--------------------------|
---------------------------|--------------------------|
---------------------------|--------------------------|
-----10--8-----8--7--------|--8--7-----7--5-----5--4--|
------8--6-----6--5--------|--6--5-----5--3-----3--2--|
--0---------0--------0--0--|--------0--------0--------|


  PM        PM       PM PM          PM       PM        
  E   E  E  E  E  E  E  E     E  E  E  E  E  E  E  E   
---------------------------|--------------------------|
---------------------------|--------------------------|
---------------------------|--------------------------|
-----10--8-----8--7--------|--8--7-----7--5-----5--4--|
------8--6-----6--5--------|--6--5-----5--3-----3--2--|
--0---------0--------0--0--|--------0--------0--------|


  PM        PM       PM PM                               
  E   E  E  E  E  E  E  E       E  E  E  E  E  E  E  E   
---------------------------||---------------------------|
---------------------------||---------------------------|
---------------------------||*--------------------------|
-----10--8-----8--7--------||*--8--8--8--7--7--7--8--8--|
------8--6-----6--5--------||---5--5--5--5--5--5--5--5--|
--0---------0--------0--0--||---------------------------|


  E  E  E  E  E  E  Q       E  E  E  E  E  E  E  E     E  E  E  E  E  E  Q     
-------------------------|--------------------------|-------------------------|
-------------------------|--------------------------|-------------------------|
-------------------------|--------------------------|-------------------------|
--8--7--7--7--7-----7----|--7--7--7--5--5--5--7--7--|--7--5--5--5--5-----5----|
--5--5--5--5--5--8-------|--4--4--4--4--4--4--4--4--|--4--4--4--4--4--7-------|
-------------------------|--------------------------|-------------------------|


  E  E  E  E  E  E  E  E     E  E  E  E  E  E  Q       E  E  E  E  E  E  E  E   
--------------------------|-------------------------|--------------------------|
--------------------------|-------------------------|--------------------------|
--------------------------|-------------------------|--------------------------|
--3--3--3--2--2--2--3--3--|--3--2--2--2--2-----2----|--2--2--2--2-----2--2--2--|
--1--1--1--1--1--1--1--1--|--1--1--1--1--1--4-------|--0--0--0--0-----0--0--0--|
--------------------------|-------------------------|--------------------------|
                            Breakdown/Verse

  E  E  E  E  E  E  Q         E  E  E  E  E  E  E  E   
--------------------------||--------------------------|
--------------------------||--------------------------|
--------------6----------*||--------------------------|
--2--2--2--2--6-----5----*||--7-----------5-----------|
--0--0--0--0--4--7--------||--5-----------3-----------|
--------------------------||-----0--0--0-----0--0--0--|


   E  E  E  E  E  E  E  E     E  E  E  E  E  E  E  E   
---------------------------|--------------------------|
---------------------------|--------------------------|
---------------------------|--------------------------|
--10-----------8-----------|--7-----------5-----------|
---8-----------6-----------|--5-----------3-----------|
------0--0--0-----0--0--0--|-----0--0--0-----0--0--0--|


                              TP   TP    TP   TP       TP    TP    TP    TP    
   E  E  E  E  E  E  E  E     Q    Q     Q    Q        Q     Q     Q     Q     
---------------------------|-----------------------|--------------------------|
---------------------------|-----------------------|--------------------------|
---------------------------|--7----9----10----9----|--10----12----10----12----|
--10-----------8-----------|--7----9----10----9----|--10----12----10----12----|
---8-----------6-----------|--5----7-----8----7----|---8----10-----8----10----|
------0--0--0-----0--0--0--|-----------------------|--------------------------|


   TP    TP    TP    TP       TP    TP    TP   TP    
   Q     Q     Q     Q        Q     Q     Q    Q     
--------------------------|-------------------------|
--------------------------|-------------------------|
--14----12----14----15----|--14----12----10----9----|
--14----12----14----15----|--14----12----10----9----|
--12----10----12----13----|--12----10-----8----7----|
--------------------------|-------------------------|


    E  E  E  E  E  E  E  E     E  E  E  E  E  E  Q     
|---------------------------|-------------------------|
|---------------------------|-------------------------|
|*--------------------------|-------------------------|
|*--8--8--8--7--7--7--8--8--|--8--7--7--7--7-----7----|
|---5--5--5--5--5--5--5--5--|--5--5--5--5--5--8-------|
|---------------------------|-------------------------|


  E  E  E  E  E  E  E  E     E  E  E  E  E  E  Q       E  E  E  E  E  E  E  E   
--------------------------|-------------------------|--------------------------|
--------------------------|-------------------------|--------------------------|
--------------------------|-------------------------|--------------------------|
--8--8--8--7--7--7--8--8--|--8--7--7--7--7-----7----|--6--6--6--5--5--5--6--6--|
--5--5--5--5--5--5--5--5--|--5--5--5--5--5--8-------|--3--3--3--3--3--3--3--3--|
--------------------------|-------------------------|--------------------------|


  E  E  E  E  E  E  Q       E  E  E  E  E  E  E  E   
-------------------------|--------------------------|
-------------------------|--------------------------|
-------------------------|--------------------------|
--6--5--5--5--5-----5----|--5--5--5--3--3--3--5--5--|
--3--3--3--3--3--6-------|--2--2--2--2--2--2--2--2--|
-------------------------|--------------------------|


                                    PM       PM        
  E  E  E  E  E  E  Q         E  E  E  E  E  E  E  E   
--------------------------||--------------------------|
--------------------------||--------------------------|
-------------------------*||--------------------------|
--5--3--3--3--3-----3----*||--8--7-----7--5-----5--4--|
--2--2--2--2--2--5--------||--6--5-----5--3-----3--2--|
--------------------------||--------0--------0--------|


  PM        PM       PM PM          PM       PM        
  E   E  E  E  E  E  E  E     E  E  E  E  E  E  E  E   
---------------------------|--------------------------|
---------------------------|--------------------------|
---------------------------|--------------------------|
-----10--8-----8--7--------|--8--7-----7--5-----5--4--|
------8--6-----6--5--------|--6--5-----5--3-----3--2--|
--0---------0--------0--0--|--------0--------0--------|


  PM        PM       PM PM          PM       PM        
  E   E  E  E  E  E  E  E     E  E  E  E  E  E  E  E   
---------------------------|--------------------------|
---------------------------|--------------------------|
---------------------------|--------------------------|
-----10--8-----8--7--------|--8--7-----7--5-----5--4--|
------8--6-----6--5--------|--6--5-----5--3-----3--2--|
--0---------0--------0--0--|--------0--------0--------|


  PM        PM       PM PM          PM       PM        
  E   E  E  E  E  E  E  E     E  E  E  E  E  E  E  E   
---------------------------|--------------------------|
---------------------------|--------------------------|
---------------------------|--------------------------|
-----10--8-----8--7--------|--8--7-----7--5-----5--4--|
------8--6-----6--5--------|--6--5-----5--3-----3--2--|
--0---------0--------0--0--|--------0--------0--------|


  PM        PM       PM PM                               
  E   E  E  E  E  E  E  E       E  E  E  E  E  E  E  E   
---------------------------||---------------------------|
---------------------------||---------------------------|
---------------------------||*--------------------------|
-----10--8-----8--7--------||*--8--8--8--7--7--7--8--8--|
------8--6-----6--5--------||---5--5--5--5--5--5--5--5--|
--0---------0--------0--0--||---------------------------|


  E  E  E  E  E  E  Q       E  E  E  E  E  E  E  E     E  E  E  E  E  E  Q     
-------------------------|--------------------------|-------------------------|
-------------------------|--------------------------|-------------------------|
-------------------------|--------------------------|-------------------------|
--8--7--7--7--7-----7----|--7--7--7--6--6--6--7--7--|--7--6--6--6--6-----5----|
--5--5--5--5--5--8-------|--4--4--4--4--4--4--4--4--|--4--4--4--4--4--7-------|
-------------------------|--------------------------|-------------------------|


  E  E  E  E  E  E  E  E     E  E  E  E  E  E  Q       E  E  E  E  E  E  E  E   
--------------------------|-------------------------|--------------------------|
--------------------------|-------------------------|--------------------------|
--------------------------|-------------------------|--------------------------|
--5--5--5--3--3--3--5--5--|--5--3--3--3--3-----3----|--2--2--2--2-----2--2--2--|
--1--1--1--1--1--1--1--1--|--1--1--1--1--1--4-------|--0--0--0--0-----0--0--0--|
--------------------------|-------------------------|--------------------------|
                            OUTRO-

  E  E  E  E  E  E  Q         E  E  E  E  E  E  E  E   
--------------------------||--------------------------|
--------------------------||--------------------------|
--------------6----------*||--------------------------|
--2--2--2--2--6-----5----*||--7-----------5-----------|
--0--0--0--0--4--7--------||--5-----------3-----------|
--------------------------||-----0--0--0-----0--0--0--|


   E  E  E  E  E  E  E  E     E  E  E  E  E  E  E  E   
---------------------------|--------------------------|
---------------------------|--------------------------|
---------------------------|--------------------------|
--10-----------8-----------|--7-----------5-----------|
---8-----------6-----------|--5-----------3-----------|
------0--0--0-----0--0--0--|-----0--0--0-----0--0--0--|


   E  E  E  E  E  E  E  E     E  E  E  E  E  E  E  E   
---------------------------|--------------------------|
---------------------------|--------------------------|
---------------------------|--------------------------|
--10-----------8-----------|--7-----------5-----------|
---8-----------6-----------|--5-----------3-----------|
------0--0--0-----0--0--0--|-----0--0--0-----0--0--0--|


   E  E  E  E  E  E  E  E     E  E  E  E  E  E  E  E   
---------------------------|--------------------------|
---------------------------|--------------------------|
---------------------------|--------------------------|
--10-----------8-----------|--7-----------5-----------|
---8-----------6-----------|--5-----------3-----------|
------0--0--0-----0--0--0--|-----0--0--0-----0--0--0--|


   E  E  E  E  E  E  E  E     E  E  E  E  E  E  E  E   
---------------------------|--------------------------|
---------------------------|--------------------------|
---------------------------|--------------------------|
--10-----------8-----------|--7-----------5-----------|
---8-----------6-----------|--5-----------3-----------|
------0--0--0-----0--0--0--|-----0--0--0-----0--0--0--|


   E  E  E  E  E  E  E  E     E  E  E  E  E  E  E  E   
---------------------------|--------------------------|
---------------------------|--------------------------|
---------------------------|--------------------------|
--10-----------8-----------|--7-----------5-----------|
---8-----------6-----------|--5-----------3-----------|
------0--0--0-----0--0--0--|-----0--0--0-----0--0--0--|


                              TP   TP    TP   TP       TP    TP    TP    TP    
   E  E  E  E  E  E  E  E     Q    Q     Q    Q        Q     Q     Q     Q     
---------------------------|-----------------------|--------------------------|
---------------------------|-----------------------|--------------------------|
---------------------------|--7----9----10----9----|--10----12----10----12----|
--10-----------8-----------|--7----9----10----9----|--10----12----10----12----|
---8-----------6-----------|--5----7-----8----7----|---8----10-----8----10----|
------0--0--0-----0--0--0--|-----------------------|--------------------------|


   TP    TP    TP    TP       TP    TP    TP   TP                        
   Q     Q     Q     Q        Q     Q     Q    Q       W                 
--------------------------|-------------------------|-------------------|
--------------------------|-------------------------|-------------------|
--14----12----14----15----|--14----12----10----9----|--7----------------|
--14----12----14----15----|--14----12----10----9----|--7----------------|
--12----10----12----13----|--12----10-----8----7----|--5----------------|
--------------------------|-------------------------|-------------------|


  W                   W                   W                   W                 
-------------------|-------------------|-------------------|-------------------|
-------------------|-------------------|-------------------|-------------------|
--L----------------|--6----------------|--L----------------|--7----------------|
--L----------------|--6----------------|--L----------------|--7----------------|
--L----------------|--4----------------|--L----------------|--5----------------|
-------------------|-------------------|-------------------|-------------------|


  W                   W                   W                 
-------------------|-------------------|-------------------|
-------------------|-------------------|-------------------|
--L----------------|--6----------------|--L----------------|
--L----------------|--6----------------|--L----------------|
--L----------------|--4----------------|--L----------------|
-------------------|-------------------|-------------------|


  H         H          
---------------------||
---------------------||
--7\-----------------||
--7------------------||
--5------------------||
---------------------||




Duration Legend
---------------
W - whole
H - half
Q - quarter
E - 8th
S - 16th
T - 32nd
X - 64th
. - note dotted
|-n-|  - n-tuplets


Tablature Legend
----------------
L - tied note
x - dead note
g - grace note
(n) - ghost note
> - accentuded note
NH - natural harmonic
AH - artificial harmonic
TH - tapped harmonic
SH - semi harmonic
PH - pitch harmonic
h - hammer on
p - pull off
b - bend
br - bendRelease
pb - preBend
pbr - preBendRelease
brb - bendReleaseBend
\n/ - tremolo bar dip
\n - tremolo bar dive
-/n - tremolo bar Release up
/n\ - tremolo bar inverted dip
/n - tremolo bar return
-\n - tremolo bar Release down
S - shift slide
s - legato slide
/ -  slide into from below or out of upwards
\ -  slide into from above or out of downwards
~ - vibrato
W - wide vibrato
tr - trill
TP - tremolo picking
T - tapping
S - slap
P - pop
< - fade in
^ - brush up
v - brush down





Comments


Popular Gallows tabs & chords
Kill The Rhythm Bass Tabs
Staring At The Rude Bois 2 Bass Tabs
Staring At The Rude Bois 3 Bass Tabs
Abandon Ship Rhythm Tabs
Crucifucks Tabs
In The Belly Of A Shark 4 Tabs
Misery Intro Tabs
Mondo Chaos Tabs
Staring At The Rude Boy Tabs
The Riverbed 1 Tabs


Song lyrics



↑ Back to top | Tablatures and chords are parodies/interpretations of the original songs. You may use it for private study, scholarship, research or language learning purposes only
© 2014 AZChords.com Contact us | Privacy policy | DMCA | Add/correct tabs | Request tabs | Top 50 tabs