» » »

Gallows, The Riverbed Tabs (ver.2)

Artists:  A B C D E F G H I J K L M N O P Q R S T U V W X Y Z # 

The Riverbed Tabs (ver.2)

Gallows Tabs
 Rating:
4/5 (4 votes)
The Riverbed lessons Tabs too difficult? Try these video lessons and learn fast
                

Tuning: Drop D

OMG!
I like song.


  0:20
e|------------------------------------------|
B|------------------------------------------|
G|------------------------------------------|
D|--0-3-00-3-00-3-00-3-00-2-00-2-00-2-00-2--|
A|--0-1-00-1-00-1-00-1-00-1-00-1-00-1-00-1--|
D|--0---00---00---00---00---00---00---00----|

  0:25
e|-------------------------------------------|
B|-------------------------------------------|
G|-------------------------------------------|
D|--00-3-00-3-00-3-00-3-00-2-00-2-00-2-00-2--|
A|--00-1-00-1-00-1-00-1-00-1-00-1-00-1-00-1--|
D|--00---00---00---00---00---00---00---00----|
  
  0:43
e|-------------------------------------------|
B|-------------------------------------------|
G|-------------------------------------------|
D|--0-3-0-0~---0-3-0-0~---333333332225552h3--|
A|--0-1-0-0~---0-1-0-0~---333333332225552h3--|
D|--0---0-0~---0---0-0~---333333332225552h3--|

  1:01
e|--------------------------------------------|
B|--------------------------------------------|
G|--------------------------------------------|
D|--0-3-0-0~---0-3-0-0~---0-3-0-0~---0-3-0-0--|
A|--0-1-0-0~---0-1-0-0~---0-1-0-0~---0-1-0-0--|
D|--0---0-0~---0---0-0~---0---0-0~---0---0-0--|

  1:07
e|-------------------------------------------|
B|-------------------------------------------|
G|-------------------------------------------|
D|--3-00-3-00-3-00-3-00-2-00-2-00-2-00-2-00--|
A|--1-00-1-00-1-00-1-00-1-00-1-00-1-00-1-00--|
D|----00---00---00---00---00---00---00---00--|

  1:18
e|-------------------------------------------|
B|-------------------------------------------|
G|-------------------------------------------|
D|--0-3-0-0~---0-3-0-0~---333333332225552h3--|
A|--0-1-0-0~---0-1-0-0~---333333332225552h3--|
D|--0---0-0~---0---0-0~---333333332225552h3--|

  1:53
e|-----------------------------------|
B|-----------------------------------|
G|-----------------------------------|
D|------------2----------------------|
A|--0-3-5-0-3---0-3-5-0-3-5-0-2-3-2--|
D|-----------------------------------|

  2:04 – Both Guitars
e|-----------------------|
B|-----------------------|
G|--3333-3333-3333-0000--|
D|--3333-2222-3333-3333--|
A|--1111-1111-1111-1111--|
D|-----------------------|

  2:06
e|-----------------------------------|
B|-----------------------------------|
G|-----------------------------------|
D|------------2----------------------|
A|--0-3-5-0-3---0-3-5-0-3-5-0-2-3-2--|
D|-----------------------------------|

  2:06 – Guitar 2
e|-----------------------------------|
B|-----------------------------------|
G|--2-0---4-0---2-0---4-0---5-4-0-4--|
D|------2-----2-----2-----2----------|
A|-----------------------------------|
D|-----------------------------------|
  This bit annoys me! Is it right? TELL ME!?

  2:17 – Both Guitars
e|-----------------------------------------------------|
B|-----------------------------------------------------|
G|--3333-3333-3333-0000—[x2]---------------------------|
D|--3333-2222-3333-3333-------8888-7777-8888-10101010--|
A|--1111-1111-1111-1111-------6666-6666-6666-6-6-6-6---|
D|-----------------------------------------------------|

  2:25 – Both Guitars
e|--------------------|
B|--------------------|
G|--------------------|
D|--0-3-0-0~----------|
A|--0-1-0-0~----------|
D|--0---0-0~----------|

  2:34 – Both Guitars
e|------------------------------------------------|
B|------------------------------------------------|
G|------------------------------------------------|
D|--3---------3---------3----------2p0------------|
A|--1---------1---------1--------------0-3p0-2p0--|
D|----0000000---0000000---00000000----------------|
      .......   .......   ........

  3:06 – Both Guitars
e|--------------------------|
B|--------------------------|
G|--------------------------|
D|--3--3--3--3--0~----------|
A|--1--1--1--1--0~----------|
D|--------------0~----------|
  Play the intro again and then this part again to end :D
            
Submit corrections

comments powered by Disqus
↑ Back to top | Gallows Tabs for The Riverbed. Lyrics for acoustic guitar and electric guitar. Tablatures and chords are parodies/interpretations of the original songs. You may use it for private study, scholarship, research or language learning purposes only