» » »

The Riverbed Bass tabs (ver.1)

Artists:  A B C D E F G H I J K L M N O P Q R S T U V W X Y Z # 

The Riverbed Bass tabs (ver.1)

Gallows
Rating:
0/5 (0 votes)

Hard to play? Try these video lessons and learn fast.
                Gallows - The riverbed


Drop D tuning (DADG)

This song hasn't a typical Verse-Chorus structure, so I'll name the parts as "Riff 1", 
2" etc...
It should be quite easy to figure out when play what anyway as most of the song is just 
and A#, you've just to get the right rhytm...

Riff 1

G|--------------------------------------| x8
D|--------------------------------------|
A|--------------------------------------|
D|--0--8--0--0--8--0--0--8--0--0--8--0--|


Riff 2

G|---------------------------------------------------------| x3
D|---------------------------------------------------------|
A|---------------------------------------------------------|
D|--0--8--0-0---0--8--0-0---3-3-3-3-3-3-3-3-2-2-2-5-5-2-3--|

 |---------------------------------------------------|
 |---------------------------------------------------|
 |---------------------------------------------------|
 |--0--8--0-0---0--8--0-0---0--8--0-0---0--8--0-0----|


Riff 3

G|-----------------------------------| x4
D|-----------------------------------|
A|-----------------------------------|
D|--8-0--0--8-0--0--8-0--0--8-0--0---|


- Riff 2


Riff 4

G|-----------------------------------| x8
D|-----------------------------------|
A|--0-3-5-0-3-7-0-3-5-0-3-5-0-2-3-2--|
D|-----------------------------------|


Riff 5

G|-----------------------------------|
D|-----------------------------------|
A|-----------------------------------|
D|--8-8-8-8-2-2-2-2-3-3-3-3-5-5-5-5--|


- Riff 4 x4

- Riff 5 x2


Riff 6

G|--------------------------------------|
D|--------------------------------------|
A|--10-10-10-10-4-4-4-4-5-5-5-5-7-7-7-7-|
D|--------------------------------------|


- Riff 2 x2 - only the second part


Riff 7

G|------------------------------------------|
D|------------------------------------------|
A|------------------------------------------|
D|--8----8----8----------8-----88-----88----|
   let...it..rain      let  it rain on me


Riff 8

G|-------------------------------------------------------------| x4
D|-------------------------------------------------------------|
A|-------------------------------------------------------------|
D|--8-0-0-0-0-0-0-0-8-0-0-0-0-0-0-0-8-0-0-0-0-0-0-0------------|
                                                    *guitar*

- Riff 7

- Riff 3

- Riff 7 - the first part, then end on D
            
Hard to play? Try these video lessons and learn fast. | Correct




comments powered by Disqus
↑ Back to top | Tablatures and chords are parodies/interpretations of the original songs. You may use it for private study, scholarship, research or language learning purposes only